Gametabs
Home
Tabs
Random

Sailing Ship

Average rating: No ratings

Tabber:

Instrument:

Created: June 10, 2020 at 12:00 AM

            Sailing Ship
    E  E   E  E   E  E   E  E      E  E  E  E  E  E  E  E     E  E  E  E  E  E  E  E   
G|------------------------------|--------------------------|--------------------------|
D|*----10-----10-----10-----10--|-----7-----7-----7-----7--|--------------------------|
A|*-8------8------8------8------|--5-----5-----5-----5-----|-----8-----8-----8-----8--|
E|------------------------------|--------------------------|--6-----6-----6-----6-----|

    E  E   E  E   E  E   E  E      E  E  E  E  E  E  E  E     E  E  E  E  E  E  E  E
G|------------------------------|--------------------------|--------------------------|
D|------------------------------|--------------------------|-----7-----7-----7-----7--|
A|-----10-----10-----10-----10--|-----7-----7-----7-----7--|--5-----5-----5-----5-----|
E|--8------8------8------8------|--5-----5-----5-----5-----|--------------------------|


    E  E  E  E  E  E  E  E     E  E   E  E   E  E   E  E
G|--------------------------|------------------------------|
D|-----8-----8-----8-----8--|-----------------------------*|
A|--6-----6-----6-----6-----|-----10-----10-----10-----10-*|
E|--------------------------|--8------8------8------8------|

    E  E  Q.       E  E  E     E  E  Q.       E  E  E     E  E  Q.       E  E  E  
G|--------r-----------------|--------r-----------------|--------r-----------------|
D|--------e-----------7-----|--------e-----------7-----|--------e-----------7-----|
A|--------s--------7-----7--|--5--5--s--------7-----7--|--------s--------7-----7--|
E|--5--5--t-----------------|--------t-----------------|--5--5--t-----------------|

    E  E  Q.       E  E  E     E  E  Q.       E  E  E     E  E  Q.       E  E  E
G|--------r-----------------|--------r-----------------|--------r-----------------|
D|--------e-----------7-----|--------e-----------8-----|--------s-----------5-----|
A|--5--5--s--------7-----7--|--------s--------8-----8--|--------e--------5-----5--|
E|--------t-----------------|--6--6--t-----------------|--3--3--t-----------------|

    E  E  Q.       E  E  E     E  E  E  E  E  E  E  E
G|--------r-----------------|---------------------------|
D|--------e-----------5-----|-----5-----5-----7-----8---|
A|--------s--------5-----5--|--3-----3-----5-----6------|
E|--6--6--t-----------------|---------------------------|


Duration Legend
---------------
W - whole
H - half
Q - quarter
E - 8th
S - 16th
T - 32nd
X - 64th
. - note dotted

        
Comments

No comments yet