Gametabs
Home
Tabs
Random

Prelude

Average rating: 4.550

20 ratings

Composer:

Tabber:

Style:

Instrument:

Created: October 12, 2007 at 12:00 AM

                                               FF theme                                     


Track 1
                                                                           
E||------------------3---------------||-------------------0---------------|
B||----------------3---3-------------||-----------------0---0-------------|
G||----------0-2-4-------4-2-0-------||*--------------0-------0-----------|
D||--------0-------------------0-----||*----------2-4-----------4-2-------|
A||----0-2-----------------------2---||---------2-------------------2-----|
E||--3-----------------------------3-||---0-2-3-----------------------3-0-|


                                                                      
----------------0-2-0-------------|------------------3---------------|
--------------3-------3-----------|----------------3---3-------------|
------------2-----------2---------|----------0-2-4-------4-2-0-------|
------0-2-4---------------4-2-0---|--------0-------------------0-----|
----0---------------------------0-|----0-2-----------------------2---|
--2-------------------------------|--3-----------------------------3-|


                                                                      
------------------0---------------|--------------0-3-8-3-0-----------|
----------------0---0-------------|----------1-3-----------3-1-------|
--------------0-------0-----------|--------0-------------------0-----|
----------2-4-----------4-2-------|----0-2-----------------------2---|
--------2-------------------2-----|--3-----------------------------3-|
--0-2-3-----------------------3-0-|----------------------------------|


                                                        
--2--------3--------|--3---------------2-------5-------|
--3--------3--------|----------------3---0-------0-----|
--2--------0--------|----------0-2-4-------0-------0---|
--0--------1--------|--------0---------------0-------0-|
--------------------|----0-2---------------------------|
--------------------|--3-----------------------3-------|


                                                                      
--3---------------0---------------|--3---------------2-------5/7-----|
----------------0---0-------------|----------------3---0---------0---|
--------------0-------0-----------|----------0-2-4-------0---------0-|
----------2-4-----------4-2-------|--------0---------------0---------|
--------2-------------------2-----|----0-2---------------------------|
--0-2-3-----------------------3-0-|--3-----------------------3/5-----|


                                                                      
--3---------------0---------------|----------------------------------|
----------------0---0-------------|----------1-------3-------1-------|
--------------0-------0-----------|--------0---0-------0-------0-----|
----------2-4-----------4-2-------|----0-2-------2-------2-------2---|
--------2-------------------2-----|--3-------------3-------3-------3-|
--0-2-3-----------------------3-0-|----------------------------------|


                                                        
--------2h3-------3-------2-------|--3--------1--------|
------3-----3---3---3---3---3---3-|--3--------1--------|
----2---------2-------2-------2---|--0--------2--------|
--0---------------0---------------|--1--------3--------|
----------------------------------|--------------------|
----------------------------------|--------------------|


                                                                             
|--3----------------|------------------||
|--3----------------|------------------||
|--0----------------|------------------||
|--0----------------|------------------||
|--2----------------|------------------||
|--3----------------|------------------||

        
Comments

@goldblade0 (October 13, 2007 at 2:48 AM)

Hey Richard took long enough to add it as a tab. It's been in CalebElijah's tabber page for months and I didnt see it as a tab at all. I was woundering if I should tell you or wait a month or 2 to tell


@Anonymous (January 17, 2008 at 10:01 PM)

how long would it take to learn this for an ametuer?


@Nicky (January 26, 2008 at 3:08 AM)

Ummm yea how long would it take to learn this song for an amtuer


@Anonymous (January 27, 2008 at 9:04 PM)

will most likely destroy your soul


@Zydare (February 01, 2008 at 1:55 AM)

It's a pretty easy song. I've been trying maybe... two times... I have the first 3 lines down xD


@intrepid (February 03, 2008 at 10:26 AM)

could use it as a warmup, tnx ^^


@Dave (February 14, 2008 at 10:27 PM)

I think the song isn't hard qua tabs, it takes skill to play it very fluidly... thanks for uploading youre awesome, im just playing this with 10bpm :P


@Art (March 01, 2008 at 3:13 PM)

Beautiful!!!! Thank you


@iusedpreludetomakemyownsong (May 24, 2008 at 9:23 PM)

Thanks loads, and i've been playing guitar for say, 2 years, and learning this tab was easy, jst need to learn it off by heart


@snipes (November 21, 2008 at 4:48 AM)

Hey, awesome tabs man. I got a classical guitar about a month ago and have been teaching myself how to play it, and I can somewhat play this, although really slowly heh. I just can't get the transition right in the second part of the song, going from the 5-7 fret and 3-5 fret on the 1st and 6th strings, watched your video too and still cant pull it off, any tips?