Gametabs
Home
Tabs
Random

Main Theme

Average rating: No ratings

Composer:

Tabber:

Style:

Instrument:

Created: October 26, 2008 at 12:00 AM

                                 Final Fantasy 1 - Main Theme BASS TAB
                             Song by Nobuo Uematsu

                   Tabbed by auriplane ([email protected])

I heart this song.  It's called Main Theme on the soundtrack, but I
always call it the map song, and I found some people online who call
it Overworld.  Go figure!

G |------------|------------|------------|------------|
D |------------|------------|------------|------------|
A |10-10-------|10-10-------|10-10-------|10-10-------|
E |---------10-|---------10-|---------10-|---------10-|

G |------------|------------|------------|------------|
D |------------|------------|------------|------------|
A |9--9--------|9--9--------|9--9--------|9--9--------|
E |---------10-|---------10-|---------10-|---------10-|

G |------------|------------|------------|------------|
D |------------|------------|------------|------------|
A |12-12-------|12-12-------|12-12-------|12-12-------|
E |---------12-|---------12-|---------12-|---------12-|

G |------------|------------|------------|------------|
D |------------|------------|------------|------------|
A |11-11-------|11-11-------|11-11-------|11-11-------|
E |---------12-|---------12-|---------12-|---------12-|

G |------------|------------|------------|------------|
D |10----10----|10----10----|12----12----|12----12----|
A |---10----10-|---10----10-|---12----12-|---12----12-|
E |------------|------------|------------|------------|

G |------------|------------|------------|------------|
D |------------|------------|14----14----|14----14----|
A |14----14----|14----14----|---14----14-|---14----14-|
E |---13----13-|---13----13-|------------|------------|

G |------------|------------|-------------------------|
D |---------14-|---------14-|---------15-|---------15-|
A |12-12-------|12-12-------|------------|------------|
E |------------|------------|13-13-------|13-13-------|

G |---15----15-|---15----15-|------------|------------|
D |------------|------------|12----------|------------|
A |13----13----|13----13----|------15----|14----12----|
E |------------|------------|------------|------------|



        
Comments

No comments yet