Gametabs
Home
Tabs
Random

What Lies Within

Average rating: 5.000

1 ratings

Composer:

Tabber:

Style:

Instrument:

Created: May 25, 2017 at 12:00 AM

            Final Fantasy XV
Composed by Yoko Shimomura 
Tabbed by: Kamiden
5/23/2017
Tuning: Standard

Order:
Section A
Section B
Violin Part over Section B
Organ Part
Section A
Section B
Violin Part over Section B


3/4 Time
Section A
   |   |   |   |   |   |   |   |   |   |   |   |   |   |   |   |   |   |   |   |   |   |   |   |
e|-----2--h3-------5--h3-------2--h3-------0--h3-------2--h3-------5--h3-------2--h3-------0--h3---|
B|-----5-----------5-----------5-----------5-----------5-----------5-----------5-----------5-------|
G|-------------------------------------------------------------------------------------------------|
D|-2-----------2-----------2-----------2-----------2-----------2-----------2-----------2-----------|
A|-------------------------------------------------------------------------------------------------|
E|-------------------------------------------------------------------------------------------------|
   .           .           .           .           .           .           .           .

   |   |   |   |   |   |   |   |   |   |   |   |   |   |   |   |   |   |   |   |   |   |   |   |
e|-----2--h3-------5--h3-------2--h3-------0--h3-------2--h3-------5--h3-------2--h3-------0--h3---|
B|-----1-----------1-----------1-----------1-----------0-----------0-----------0-----------0-------|
G|-------------------------------------------------------------------------------------------------|
D|-2-----------2-----------2-----------2-----------2-----------2-----------2-----------2-----------|
A|-------------------------------------------------------------------------------------------------|
E|-------------------------------------------------------------------------------------------------|
   .           .           .           .           .           .           .           .

   |   |   |   |   |   |   |   |   |   |   |   |   |   |   |   |   |   |   |   |   |   |   |   |
e|-----2--h3-------5--h3-------2--h3-------0--h3-------2--h3-------5--h3-------2--h3-------0--h3---|
B|-----0-----------0-----------0-----------0-----------0-----------0-----------0-----------0-------|
G|-------------------------------------------------------------------------------------------------|
D|-1-----------1-----------1-----------1-----------2-----------2-----------2-----------2-----------|
A|-------------------------------------------------------------------------------------------------|
E|-------------------------------------------------------------------------------------------------|
   .           .           .           .           .           .           .           .

   |   |   |   |   |   |   |   |   |   |   |   |   |   |   |   |   |   |   |   |   |   |   |   |
e|-----2--h3-------5--h3-------2--h3-------0--h3-------2--h3-------5--h3-------2--h3-------0--h3---|
B|-----1-----------1-----------1-----------1-----------2-----------2-----------2-----------2-------|
G|-------------------------------------------------------------------------------------------------|
D|-2-----------2-----------2-----------2-----------2-----------2-----------2-----------2-----------|
A|-------------------------------------------------------------------------------------------------|
E|-------------------------------------------------------------------------------------------------|
   .           .           .           .           .           .           .           .

   |   |   |   |   |   |   |   |   |   |   |   |
e|-----2--h3-------5--h3-------2--h3---------------|
B|-----3-----------3-----------3-----------3-------|
G|-------------------------------------------------|
D|-2-----------2-----------2-----------2-----------|
A|-------------------------------------------------|
E|-------------------------------------------------|
   .           .           .           .


6/8 Time
Section B
   |  |  |  |  |  |  |  |  |  |  |  |  |  |  |  |  |  |  |  |  |  |  |  |  
e|----------0-----0--5--3--2--3--2--0-----------0-----0--5--3--2--3--2--0--|
B|-------0-----4-----------------------------0-----4-----------------------|
G|----0-----------------------------------0--------------------------------|
D|-2--------L--------L--------L--------2--------L--------L--------L--------|
A|-------------------------------------------------------------------------|
E|-------------------------------------------------------------------------|


   |  |  |  |  |  |  |  |  |  |  |  |  |  |  |  |  |  |  |  |  |  |  |  |  
e|-------------------------------------------------------5--3--2--3--2-----|
B|----------4-----4--7--5--4--5--4--------------4--2--4--------------------|
G|-------------6--------------------6-----4-----------------------------4--|
D|----4-h7-----------------------------------4-----------------------------|
A|-6--------L--------L--------L--------2--------L--------L--------L--------|
E|-------------------------------------------------------------------------|


   |  |  |  |  |  |  |  |  |  |  |  |  |  |  |  |  |  |  |  |  |  |  |  |  
e|----------0-----0--5--3--2--3--2--0--------------------5--7--8--7--5-----|
B|-------------4--------------------------------5-----5-----------------5--|
G|-------0-----------------------------------5-----8-----------------------|
D|----2-----------------------------------7--------------------------------|
A|-3--------L--------L--------L--------------------------------------------|
E|-------------------------------------5--------L--------L--------L--------|


   |  |  |  |  |  |  |  |  |  |  |  |  |  |  |  |  |  |  |  |  |  |  |  |  
e|----------0-----0--------------------------------------------------7-----|
B|-------------4-----8--7--5--7--5--4-----------------------------7--------|
G|----------------------------------------------------8--------8-----------|
D|-------------------------------------------------9--------9----------<16>|
A|----4--7-----------------------------------6--9--------9-----------------|
E|-6--------L--------L--------L--------7--7--------------------------------|
								       P.H.7


Violin Part (Play over Section B the second time)

   |  |  |  |  |  |  |  |  |  |  |  |  |  |  |  |  |  |  |  |  |  |  |  |  
e|------------------/7--------5--------7--------L--------L--------L--------|
B|----------0--------------------------------------------------------------|
G|-------------------------------------------------------------------------|
D|-------------------------------------------------------------------------|
A|-------------------------------------------------------------------------|
E|-------------------------------------------------------------------------|



   |  |  |  |  |  |  |  |  |  |  |  |  |--|2-|  |  |  |  |  |  |  |  |  |  
e|------------------/7--------5--------3---h5---2--------L--------L--------|
B|----------0--------------------------------------------------------------|
G|-------------------------------------------------------------------------|
D|-------------------------------------------------------------------------|
A|-------------------------------------------------------------------------|
E|-------------------------------------------------------------------------|



   |--|2-|  |  |  |  |  |  |  |  |  |  |--|2-|  |  |  |  |  |  |  |  |  |  
e|-0---2----3--------L--------L--------0---2----3--------L--------3--------|
B|-------------------------------------------------------------------------|
G|-------------------------------------------------------------------------|
D|-------------------------------------------------------------------------|
A|-------------------------------------------------------------------------|
E|-------------------------------------------------------------------------|



   |  |  |  |  |  |  |  |  |  |  |  |  |  |  |  |  |  |  |  |  |  |  |  |  
e|-2--------L--------L--------0-----------------L--------L--------L--------|
B|-------------------------------------4-----------------------------------|
G|-------------------------------------------------------------------------|
D|-------------------------------------------------------------------------|
A|-------------------------------------------------------------------------|
E|-------------------------------------------------------------------------|



4/4 Time
Organ Part

   |       |       |       |       |       |       |       |             
e|-0---7---5---7---3---7---2---7---0---3---5---7---3---7---2---7---|
B|-0-------L-------L-------L-------L-------L-------L-------L-------|
G|-----------------------------------------------------------------|
D|-----------------------------------------------------------------|
A|-----------------------------------------------------------------|
E|-----------------------------------------------------------------|


   |       |       |       |       |       |       |       |             
e|-----8---7---8---5---8-------8-------8---7---8---5---8-------8---|
B|-5-----------------------8-------5-----------------------8-------|
G|-5-------L-------L-------L-------L-------L-------L-------L-------|
D|-----------------------------------------------------------------|
A|-----------------------------------------------------------------|
E|-----------------------------------------------------------------|


   |       |       |       |       |       |       |       |             
e|-0---7---5---7---3---7---2---7---0---3---5---7---3---7---2---7---|
B|-0-------L-------L-------L-------L-------L-------L-------L-------|
G|-----------------------------------------------------------------|
D|-----------------------------------------------------------------|
A|-----------------------------------------------------------------|
E|-----------------------------------------------------------------|


   |       |       |       |       |       |       |       |             
e|-----8---7---8---5---8-------8-------8---7---8---5---8-------8---|
B|-5-----------------------8-------5-----------------------8-------|
G|-5-------L-------L-------L-------L-------L-------L-------L-------|
D|-----------------------------------------------------------------|
A|-----------------------------------------------------------------|
E|-----------------------------------------------------------------|



   |       |       |       |       |       |       |       |             
e|-10------L-------L-------L-------8-------L-------L-------L-------|
B|---------------------------------8-------L-------L-------L-------|
G|-10------L-------L-------L-------9-------L-------L-------L-------|
D|-10------L-------L-------L---------------------------------------|
A|-8-------L-------L-------L-------7-------L-------L-------L-------|
E|-----------------------------------------------------------------|


   |       |       |       |       |       |       |       |             
e|-8-------L-------L-------L-------10------L-------L-------L-------|
B|-8-------------------------------10------L-------L-------L-------|
G|-8-------L-------L-------L-------11------L-------L-------L-------|
D|---------L-------L-------L-------12------L-------14------L-------|
A|-6-------L-----------------------12------L-------L-------L-------|
E|-----------------8-------L-------10------L-------L-------L-------|


   |       |       |       |       |       |       |       |             
e|-L-------L-------L-------L-------11------L-------L-------L-------|
B|-L-------L-------L-------L-------10------L-------L-------L-------|
G|-L-------L-------L-------L---------------------------------------|
D|t16p14T16L-------L-------L-------9-------L-------L-------L-------|
A|-L-------L-------L-------L---------------------------------------|
E|-L-------L-------L-------L-------7-------L-------L-----pT5-------|


T = tap (or use right hand)
h = hammer on
p = pull off
L = Legato (Sustain note)
/ = Slide up to
P.H.7 = Pinch Harmonic 7th fret from the note held. In this example, keep holding 9 and PH 16.
pT = pull off to right hand on the note. In this example, pull off 7 while your right hand is on 5.
. = Staccato
        
Comments

No comments yet