Gametabs
Home
Tabs
Random

Valse di Fantastica

Average rating: 5.000

1 ratings

Composer:

Tabber:

Style:

Instrument:

Created: July 28, 2020 at 12:00 AM

            Title: Valse de Fantastica
SubTitle: Final Fantasy XV
Artist: Cecil Chau (GuitarSVD)
Music: Yoko Shimomura
Tempo = 180
Nylon Guitar

Legend
L - tied note
x - dead note
h - hammer on/pull off
b - bend
s - slide
~ - vibrato
g - ghost note
> - accentuated note
t - trill
M - palm mute
. - staccato
P - popping (bass)
S - slapping (bass)
+ - tapping
W - wide vibrato
< - fade in
w - whammy bar
= - tremolo picking
v - brush up
^ - brush down
V - pick stroke up
n - pick stroke down


E ||------------|---------------------|||------------------------------|
B ||----0--0----|--------0-----0------|||-0-----------0----------------|
G ||o---0--0----|--------0-----0-----o|||o---------2-------------------|
D ||o-----------|--------------------o|||o---------------------2--2----|
A ||------------|-----------2---------|||------------------------------|
E ||-0----------|--0------------------|||-------------------0----------|


----------------------|----------------------|-------------------------------|
--------0-------------|--3-------------------|--0-----0----------------------|
--0--2----------------|--------5-----2-------|-----2-----------------0--0----|
--------------5--5----|-----------4--4--4----|-----------------------0--0----|
--------------7--7----|-----------5----------|-------------------------------|
-----------0----------|----------------------|--------------------3----------|


----------------------|-------------------------------|
----------------------|-------------------------------|
--------2-------------|-----------0-------------------|
--2-------------------|--4-----------4----------------|
-----------3-----3----|-----------------2--5----------|
--------------3-------|-----------------------5-------|


-------------------------------|------------------------------||
-------------------------------|------------------------------||
-----------------2-------------|--------------2--3-----------o||
--2--------1--2----------------|--4-----4--5-----------------o||
--------------------3-----3----|--------------------5--5--5---||
-----------------------3-------|--------------------5---------||


----------------------|-------------------------|----------------|
--------0-------------|-------------------------|--------0--0----|
----------------------|--2--------0-------------|--------0--0----|
--2-------------------|--------------4-----4----|--2-------------|
-----------3-----3----|--------------------5----|-----2----------|
--------------3-------|-------------------------|-----0----------|


-------------------------||-7--------5--7----------------|
--------7--8--10-11------||----------------------0--0----|
--------7--9--11-11------||o---------------------0--0----|
-------------------------||o-----------------------------|
-------------------------||------------------------------|
--------------------0----||-------------------0----------|


--3--5--7----------------------|--10----8-------------|
-----------------5-----8-------|--------------7--7----|
--------------------4----------|--------------7--7----|
-------------------------------|-----------0----------|
-------------------------------|----------------------|
-----------0-------------------|----------------------|


--7--5--7-----0-------------------------|--0-----5-------------|
-----------7--------------0-----0-------|----------------------|
-----------------7--------0--0--0-------|--------------0--5----|
----------------------------------------|--------------2-------|
----------------------------------------|-----------3----------|
--------------------3-------------------|----------------------|


--2--------3--2----------------|--0-----------0--5-------------|
-----------------0-----3-------|-----------4-------------------|
-----------------------2--2----|-----------------------0--0----|
--------------------0----------|-----------------------2-------|
-------------------------------|--------------------3----------|
-------------------------------|-------------------------------|


--2---------------------------||--10----12------------|
--------7--8--10-11-3---------||--------------7--7----|
--------7--9--11-11-2--------o||--------------7--7----|
--------------------0--------o||-----------0----------|
------------------------------||----------------------|
------------------------------||----------------------|


--7--5--7-----0----------------|--0-----------0--7-------------|
-----------7-----------0--0----|-----------4-------------------|
-----------------7-----0--0----|-----------------------0--0----|
-------------------------------|-----------------------2-------|
-------------------------------|--------------------3----------|
--------------------3----------|-------------------------------|


--5--------3--2----------------|--0----------------------|
-----------------------3--3----|--------------------0----|
-----------------------2--2----|-----------------0-------|
--------------------0----------|-----------2--4----------|
-------------------------------|--------2----------------|
-------------------------------|-----0-------------------|


--------7--------12---|--2-----------0----------|--0----------------------|
-----8--------12------|--------3h-1--0----------|--1-----1h-0-------------|
--9--------12---------|-----2--------0--2-------|--------------2h-0-------|
----------------------|-------------------------|-----2-------------------|
----------------------|--------------------3----|--------------------3----|
----------------------|-------------------------|-------------------------|


--2-----------3----------|-------------------------|-------------------------|
--0-----3h-1--0----------|--3-----1h-0-------------|--1-----------0----------|
-----2--------0--0-------|--0-----------2h-0-------|-----0--------0----------|
-------------------------|-----0--------0----------|--------2h-4-----4-------|
-------------------------|-------------------------|--------------------3----|
--------------------3----|--------------------3----|-------------------------|


-------------------------|--2----------------------|
--------------1h-3-------|-----3--1h-0-----0-------|
--0h-2-----0--0----------|--0-----------2----------|
--------4----------------|-------------------------|
--------------------3----|-------------------------|
-------------------------|--------------------3----|


--7h-5--3h-2--0----------------|--0----------------------|
-----------------3-------------|--0--3--1h-0-----0-------|
--------------------0----------|--------------2----------|
-------------------------------|-------------------------|
-------------------------------|--------------------3----|
--------------------------3----|-------------------------|


--8-----------7----------|-------------------------|-------------------------|
--8--10h8-----8--8-------|--3h-0-------------------|--1h-0-------------------|
-----------11------------|--0-----2h-0-----0-------|--0-----2h-0-----0-------|
-------------------------|--------------4----------|--------------4----------|
-------------------------|-------------------------|-------------------------|
--------------------8----|--------------------3----|--------------------3----|


-------------------------|--0-----------0----------|
--1--------0--1h-3-------|--0-----4-----0----------|
--0-----0-----0----------|-----0-----0-----0-------|
-----4-------------------|-------------------------|
--------------------3----|--------------------3----|
-------------------------|-------------------------|


--2--------2----------------------|-------------------------------||
--------------0-----0-------------|--------7--8--10-11------------||
-----------------2-----2----------|--------7--9--11-11------------||
--------------------------1-------|-------------------------------||
-----------------------------2----|--------------------2----------||
----------------------------------|-------------------------------||


-7--------5--7----------------------------------|
----------------------------------0--0----------|
o------------------------------0----------------|
o---------------------------0-------------------|
------------------------------------------------|
-------------------0----------------------------|


--3--5--7-------------------------------|
--------------------------5--8----------|
-----------------------4----------------|
--------------------0-------------------|
----------------------------------------|
-----------0----------------------------|


--10----8-------------------------------|
--------------------------7--7----------|
-----------------------7-----7----------|
-----------0--------0-------------------|
----------------------------------------|
----------------------------------------|


--7--5--7----------------------------------------|
-----------------------------------0--0----------|
--------------------------------0-----0----------|
-----------------------------0-------------------|
-------------------------------------------------|
--------------------3----------------------------|


--0-----5-------------------------------|
--------------------------0--0----------|
-----------------------0----------------|
--------------------2-------------------|
-----------3----------------------------|
----------------------------------------|


--2--------3--2----------------------------------|
-----------------0-----------------3-------------|
--------------------------------2-----2----------|
--------------------0--------0-------------------|
-------------------------------------------------|
-------------------------------------------------|


--0-----------0--5-------------------------------|
-----------4-------------------------------------|
-----------------------------------0--0----------|
--------------------------------2----------------|
--------------------3--------3-------------------|
-------------------------------------------------|


--2---------------------------||--10----12------------------------------|
--------7--8--10-11-3---------||--------------------------7--7----------|
--------7--9--11-11-2--------o||-----------------------7-----7----------|
--------------------0--------o||-----------0--------0-------------------|
------------------------------||----------------------------------------|
------------------------------||----------------------------------------|


--7--5--7----------------------------------------|
-----------------------------------0--0----------|
--------------------------------0-----0----------|
-----------------------------0-------------------|
-------------------------------------------------|
--------------------3----------------------------|


-----0--5-------------------------------|
--------------------------0--0----------|
-----------------------0----------------|
--------------------2-------------------|
-----------3----------------------------|
----------------------------------------|


--2--------3--2----------------------------------|
-----------------0-----------------3-------------|
--------------------------------2-----2----------|
--------------------0--------0-------------------|
-------------------------------------------------|
-------------------------------------------------|


--0-----------0--7-------------|--5--------3--2----------------|
-----------4-------------------|-----------------------3--3----|
-----------------------0--0----|-----------------------2-------|
-----------------------2-------|--------------------0----------|
--------------------3----------|-------------------------------|
-------------------------------|-------------------------------|


--0----------------------------------------|
-----------------0-------------------------|
--------------------0----------------------|
-----------------------2-------------------|
--------------------------2----------------|
-----0-----------------------0-------------|


----------------------------------------|
--------------0-------------------------|
-----------------0----------------------|
--------------------2-------------------|
-----------------------2----------------|
--0-----------------------0-------------|


----------------------------------------|
--------------0-------------------------|
-----------------0----------------------|
--------------------2-------------------|
-----------------------2----------------|
--0-----------------------0-------------|


----------------------------------------||
--------------0-------------------------||
-----------------0----------------------||
--------------------2-------------------||
-----------------------2----------------||
--0-----------------------0-------------||


---------------------------------------|-------------------------------|
-0-----------0-------------------------|--------0----------------------|
o---------2----------------------------|--0--2-------------------------|
o---------------------------2--2--2----|--------------------2--2--2----|
---------------------------------------|-------------------------------|
-------------------0--------0--0--0----|-----------0--------0--0--0----|


-------------------------------|----------------------------------------|
--3-----1----------------------|--0-----0-------------------------------|
--------------------2--2--2----|-----2----------------------------------|
-----------0--------0--0--0----|-----------------------------0--0--0----|
-------------------------------|----------------------------------------|
-------------------------------|--------------------3--------3--3--3----|


-------------------------------|----------------------------------------|
-------------------------------|----------------------------------------|
--------2----------------------|-----------0----------------------------|
--2----------------------------|--4-----------4-------------------------|
-----------3-----------3--3----|-----------------2--5-------------------|
--------------------3----------|-----------------------------5--5--5----|


----------------------------------------|------------------------------||
----------------------------------------|------------------------------||
-----------------2----------------------|--------------2--3-----------o||
--2--------1--2-------------------------|--4-----4--5-----------------o||
--------------------3-----------3--3----|--------------------5--5--5---||
-----------------------------3----------|--------------------5---------||


-------------------------------|-------------------------|
-----------------0-------------|-------------------------|
-------------------------------|--2--------0-------------|
--2--------1--2----------------|--------------4-----4----|
--------------------3-----3----|--------------------5----|
-----------------------3-------|-------------------------|


----------------------------------|--------0--------7--------10---|
-----------------------------0----|-----0--------8--------12------|
--------------------------0-------|--0--------9--------12---------|
--2-----------------2--4----------|-------------------------------|
-----2-----------2----------------|-------------------------------|
-----0--------0-------------------|-------------------------------|


--14----12L--------------------|--12---------------------|
--------------------0----------|--------------0----------|
-----------------0-----0-------|-----------0-----0-------|
--------------0-----------0----|--------0-----------0----|
-------------------------------|-------------------------|
-----------8-------------------|-----8-------------------|


--14----15---------------------|--10---------------------|
--------------------0----------|--------------0----------|
-----------------0-----0-------|-----------0-----0-------|
--------------0-----------0----|--------0-----------0----|
-----------10------------------|-----10------------------|
-------------------------------|-------------------------|


--8-----7L---------------------|--7--8--10---------------------|
--------------------0----------|--------------------0----------|
-----------------0-----0-------|-----------------0-----0-------|
--------------0-----------0----|--------------0-----------0----|
-------------------------------|-------------------------------|
-----------8-------------------|-----------8-------------------|


--14----15---------------------|--19---------------------|
--------------------0----------|-----0-------------------|
-----------------0-----0-------|--------0-----0----------|
--------------0-----------0----|-----------0-----0-------|
-----------10------------------|-------------------------|
-------------------------------|--------------------7----|


--12---------------------|--20----19---------------------|
--------------0----------|--------------0-----0----------|
-----------0-----0-------|-----------------0-----0-------|
--------0-----------0----|--------------------------0----|
-------------------------|-----------15------------------|
-----8-------------------|-------------------------------|


--10L--------------------|--10---------------------|
--------------0----------|--------------0----------|
-----------0-----0-------|-----------0-----0-------|
--------0-----------0----|--------0-----------0----|
-----10------------------|-----10------------------|
-------------------------|-------------------------|


--8--------7--8--10---------------------|--12-11-12------------|
-----------------------0-----0----------|-----------0--0-------|
--------------------------0-----0-------|-----------0-----0----|
-----------------------------------0----|----------------------|
----------------------------------------|----------------------|
--------------------8-------------------|-----------8----------|


--14------------------------------|--------------------7----------|
-----0-----0----------------------|--------7--8--10-11-7----------|
--------14----14----14------------|--------7--9--11-11-8----------|
-----------------13----13---------|--------------------9----------|
--------------------------14-14---|--------------------9----------|
----------------------------------|--------------------7----------|


--7--------5--7----------------------------------|
-----------------------------------0--0----------|
--------------------------------0----------------|
-----------------------------0-------------------|
-------------------------------------------------|
--------------------0----------------------------|


--3--5--7-------------------------------|
--------------------------5--8----------|
-----------------------4----------------|
--------------------0-------------------|
----------------------------------------|
-----------0----------------------------|


--10----8-------------------------------|
--------------------------7--7----------|
-----------------------7-----7----------|
-----------0--------0-------------------|
----------------------------------------|
----------------------------------------|


--7--5--7----------------------------------------|
-----------------------------------0--0----------|
--------------------------------0-----0----------|
-----------------------------0-------------------|
-------------------------------------------------|
--------------------3----------------------------|


--0-----5-------------------------------|
--------------------------0--0----------|
-----------------------0----------------|
--------------------2-------------------|
-----------3----------------------------|
----------------------------------------|


--2--------3--2----------------------------------|
-----------------0-----------------3-------------|
--------------------------------2-----2----------|
--------------------0--------0-------------------|
-------------------------------------------------|
-------------------------------------------------|


--0-----------0--5-------------------------------|
-----------4-------------------------------------|
-----------------------------------0--0----------|
--------------------------------2----------------|
--------------------3--------3-------------------|
-------------------------------------------------|


--2----------------------------|
--------7--8--10-11-3----------|
--------7--9--11-11-2----------|
--------------------0----------|
-------------------------------|
-------------------------------|


--7--------5--7----------------------------------|
-----------------------------------0--0----------|
--------------------------------0----------------|
-----------------------------0-------------------|
-------------------------------------------------|
--------------------0----------------------------|


--3--5--7-------------------------------|
--------------------------5--8----------|
-----------------------4----------------|
--------------------0-------------------|
----------------------------------------|
-----------0----------------------------|


--10----12------------------------------|
--------------------------7--7----------|
-----------------------7-----7----------|
-----------0--------0-------------------|
----------------------------------------|
----------------------------------------|


--7--5--7----------------------------------------|
-----------------------------------0--0----------|
--------------------------------0-----0----------|
-----------------------------0-------------------|
-------------------------------------------------|
--------------------3----------------------------|


--0-----5-------------------------------|
--------------------------0--0----------|
-----------------------0----------------|
--------------------2-------------------|
-----------3----------------------------|
----------------------------------------|


--2--------3--2----------------------------------|-----12-17------------|
-----------------0-----------------3-------------|--------------0--0----|
--------------------------------2-----2----------|--------------0-------|
--------------------0--------0-------------------|----------------------|
-------------------------------------------------|----------------------|
-------------------------------------------------|-----------8----------|


--14-------15-14---------------|-----0--5-------------------------------|
--15----------15---------------|--------------------------0--0----------|
-----------------16------------|-----------------------0----------------|
--------------------0-----0----|--------------------2-------------------|
-------------------------------|-----------3----------------------------|
-------------------------------|----------------------------------------|


--2--------3--2----------------------------------|
-----------------0-----------------3-------------|
--------------------------------2-----2----------|
--------------------0--------0-------------------|
-------------------------------------------------|
-------------------------------------------------|


--0-----------0--7-------------|--5--3--2-------------|
-----------4-------------------|--------------3--3----|
-----------------------0--0----|--------------2-------|
-----------------------2-------|-----------0----------|
--------------------3----------|----------------------|
-------------------------------|----------------------|


--0-----12---------------------|--12------------|--14-12-10L-----|
--------0----------------------|-----0--0-------|--15----7-------|
--------0----------------------|-----0--0-------|--------7-------|
-------------------------------|----------------|-----------0----|
-------------------------------|----------------|----------------|
-----------0--------0--0-------|-----------0----|----------------|


--10----8-------------|--7--8--7L------------------------------|
--------------7-------|--0--------------------------0--0-------|
--------------7-------|-----------------------------0--0-------|
-----------0----------|----------------------------------------|
----------------------|----------------------------------------|
----------------------|--------------------8-------------------|


--7-------------|----------------------------------------|
-----0--0-------|-----------------------------------10---|
-----0--0-------|-----------------------11-------11------|
----------------|--0-----------------12-------12---------|
----------------|--12-------------12-------12------------|
-----------8----|--------------10------------------------|


--10------------------------------------|--0-----12---------------------|
-----10----10---------------------------|-----------------------0-------|
--------11----11----11------------------|-----------------------0-------|
-----------------12----12----12---------|-------------------------------|
--------------------------12----12------|-------------------------------|
-----------------------------------10---|-----------0--------0----------|


--12------------|--14-15-17L-----|--17----------15-14------------|
-----0--0-------|--15----15------|--------------------15-15------|
-----0--0-------|--14-14---------|--------------------14-14------|
----------------|-----------0----|--------------------------0----|
----------------|----------------|-------------------------------|
-----------0----|----------------|-------------------------------|


--15L--------------------|--15----------14-12------------|
-----0--------0--0-------|--------------------0--0--0----|
-----0--------0--0-------|--------------------0--0--0----|
-------------------------|-------------------------------|
-------------------------|-------------------------------|
-----8-------------------|--------------------8----------|


--14----12L--------------------|--12-12-10------------|
--15-------------------10------|--------------10-10---|
-----------------------9-------|-----------9--9--9----|
-----------0--------0----------|----------------------|
-------------------------------|----------------------|
-------------------------------|----------------------|


--7--------5--7----------------|--3--5--7-------------|--2-----3-------------|
-----------------------0M-0M---|--------------7M-7M---|--------------1M-1M---|
-----------------------0M-0M---|--------------7M-7M---|--------------0M-0M---|
-------------------------------|-----------0M---------|----------------------|
--------------------7M---------|----------------------|-----------3M---------|
-------------------------------|----------------------|----------------------|


--2-----0-------------|--7--------5--7----------------|
--------------3M-3M---|-----------------------0M-0M---|
--------------2M-2M---|-----------------------0M-0M---|
-----------0M---------|-------------------------------|
----------------------|--------------------7M---------|
----------------------|-------------------------------|


--10----------8h-7-------------|--7--------8--7h-5-------------|
-----------------------7M-7M---|-----------------------5M-5M---|
-----------------------7M-7M---|-----------------------5M-5M---|
--------------------0M---------|-------------------------------|
-------------------------------|--------------------3M---------|
-------------------------------|-------------------------------|


--3--5--2-------------|--7--------5--7----------------|--3--5--7-------------|
--------------3M-3M---|-----------------------0--0----|--------------7--7----|
--------------2M-2M---|-----------------------0--0----|--------------7--7----|
-----------0M---------|-------------------------------|-----------0----------|
----------------------|--------------------7----------|----------------------|
----------------------|-------------------------------|----------------------|


--2-----3-------------|--2-----0-------------|--7--------5--7----------------|
--------------1--1----|--------------3--3----|-----------------------0--0----|
--------------0--0----|--------------2--2----|-----------------------0--0----|
----------------------|-----------0----------|-------------------------------|
-----------3----------|----------------------|--------------------7----------|
----------------------|----------------------|-------------------------------|


--10----------8h-7-------------|--7L---------------------|--7-------------|
-----------------------7--7----|-----0--------0--0-------|-----0--0--0----|
-----------------------7--7----|-----0--------0--0-------|-----0--0--0----|
--------------------0----------|-------------------------|----------------|
-------------------------------|-------------------------|----------------|
-------------------------------|-----8-------------------|-----8----------|


-----------7--7-------------------------|--7--7----------------|
-----------------------------7--7-------|-----------7--7-------|
-----------------------------8--8-------|-----------8--8-------|
--------------------9-------------------|-----------------9----|
--------------------9-------------------|-----------------9----|
--------------------7-------------------|-----------------7----|


-----------8--8-------------------------|--8--8----------------|
-----------------------------8--8-------|-----------8--8-------|
-----------------------------9--9-------|-----------9--9-------|
--------------------10------------------|-----------------10---|
--------------------10------------------|-----------------10---|
--------------------8-------------------|-----------------8----|


--7--------5--7----------------------------------|
-----------------------------------0--0----------|
--------------------------------0----------------|
-----------------------------0-------------------|
-------------------------------------------------|
--------------------0----------------------------|


--3--5--7-------------------------------|
--------------------------5--8----------|
-----------------------4----------------|
--------------------0-------------------|
----------------------------------------|
-----------0----------------------------|


--10----8-------------------------------|
--------------------------7--7----------|
-----------------------7-----7----------|
-----------0--------0-------------------|
----------------------------------------|
----------------------------------------|


--7--5--7----------------------------------------|
-----------------------------------0--0----------|
--------------------------------0-----0----------|
-----------------------------0-------------------|
-------------------------------------------------|
--------------------3----------------------------|


--0-----5-------------------------------|
--------------------------0--0----------|
-----------------------0----------------|
--------------------2-------------------|
-----------3----------------------------|
----------------------------------------|


--2--------3--2----------------------------------|
-----------------0-----------------3-------------|
--------------------------------2-----2----------|
--------------------0--------0-------------------|
-------------------------------------------------|
-------------------------------------------------|


--0-----------0--5-------------------------------|
-----------4-------------------------------------|
-----------------------------------0--0----------|
--------------------------------2----------------|
--------------------3--------3-------------------|
-------------------------------------------------|


--2----------------------------|
--------7--8--10-11-3----------|
--------7--9--11-11-2----------|
--------------------0----------|
-------------------------------|
-------------------------------|


--7--------5--7----------------------------------|
-----------------------------------0--0----------|
--------------------------------0----------------|
-----------------------------0-------------------|
-------------------------------------------------|
--------------------0----------------------------|


--3--5--7-------------------------------|
--------------------------5--8----------|
-----------------------4----------------|
--------------------0-------------------|
----------------------------------------|
-----------0----------------------------|


--10----12------------------------------|
--------------------------7--7----------|
-----------------------7-----7----------|
-----------0--------0-------------------|
----------------------------------------|
----------------------------------------|


--7--5--7----------------------------------------|-----0--5-------------|
-----------------------------------0-------------|----------------------|
--------------------------------0-----0----------|--------5-------------|
-----------------------------0-----------0-------|--------------5-------|
-------------------------------------------------|-----------3----------|
--------------------3-----------------------3----|----------------------|


--2--------3--2----------------|-----12-17------------|
-----------------0-----3-------|--------------0--0----|
-----------------------2--2----|--------------0-------|
--------------------0----------|----------------------|
-------------------------------|----------------------|
-------------------------------|-----------8----------|


--14-------15-14---------------------------------|-----0--5-------------|
--15----------15-12-------------15---------------|----------------------|
-----------------------------14------------------|-----------------5----|
--------------------0-----------------0----------|--------------5-------|
-------------------------------------------------|-----------3----------|
-------------------------------------------------|----------------------|


--2--10-14------|--12-------------0-------|--0--------------12------------|
--3--7--15------|--12-12-12-------0-------|--0--------12-12-12------------|
-----7--14------|-----12-12-12-12---------|-----12-12-12-12---------------|
-----------0----|-----------12-12---------|-----12-12---------------------|
----------------|-------------------------|-------------------------------|
----------------|--------------------0----|--------------------0-----0----|


--12------|----------|--0L------|--0-------||
--12------|--12------|--0L------|--0-------||
----------|--12------|--0L------|--0-------||
----------|----------|----------|----------||
----------|----------|----------|----------||
-----0----|-----0----|-----0L---|-----0----||


        
Comments

No comments yet