Gametabs
Home
Tabs
Random

Serenade Fantastique Noctis

Average rating: 5.000

2 ratings

Composer:

Tabber:

Style:

Instrument:

Created: June 14, 2019 at 12:00 AM

                                    Serenade Fantastique - Noctis                           


                                                          Cecil Chau (GuitarSVD)
Track 1



       ^                                ^                                    
       H.              H.               Q.      E   E   E      H.            
E||--<>5------------|---------------|--14------15---L--14--|--17------------|
B||----7------------|---------------|--15--------------15--|--15------------|
G||----7------------|---------------|--14------------------|--14------------|
D||----7------------|--0------------|----------------------|----------------|
A||-----------------|---------------|----------------------|----------------|
D||-----------------|--0------------|----------------------|----------------|


                                  |-3| |3|  |-3| |3|  |-3| |3|   
  H.              H.              E  S S E  E  S S E  E  S S E   
---------------|---------------|--5--2------2-------------------|
---------------|---------------|--3------3-----3------3---------|
---------------|---------------|------------2------2-----2------|
--0------------|--L------------|-------4--------------4------4--|
---------------|---------------|-----------------5---------0----|
--0------------|--L------------|--------------------------------|


  |--3--|  |--3--|  |-3| |3|     |-3| |3|  |-3| |3|  |-3| |3|   
  E  E  E  E  E  E  E  S S E     E  S S E  E  S S E  E  S S E   
---------------------------2--|--5--2------2-------------------|
-----------------------3------|--3------3-----3------3---------|
--2-----------------2----2----|------------2------2-----2------|
-----4-----------4--0---------|-------4--------------4------4--|
--------5--0--5---------------|-----------------5---------0----|
--0---------------------------|--------------------------------|


  |--3--|  |--3--|  |-3| |3|     |--3--|  |-3| |3|  |--3--|   
  E  E  E  E  E  E  E  S S E     E  E  E  E  S S E  E  E  E   
---------------------------2--|--5--2-----2------------------|
-----------------------3------|--------3-----3------3--------|
--2-----------------2----2----|------------------2-----2-----|
-----4-----------4--0---------|--4-------------5----------4--|
--------5--0--5---------------|------------------------------|
--0---------------------------|------------------------------|


  |--3--|  |-3| |3|  |-3| |3|     |--3--|  |--3--|  |--3--|   
  E  E  E  E  S S E  E  S S E     E  E  E  E  E  E  E  E  E   
----------------------------2--|--7-----0--------------------|
------------------------3------|-----8-----8-----0-----------|
--2-------------0----2---------|--0-----------9-----9-----0--|
-----4------------4-------4----|-----------------------9-----|
--------5--0--5----------------|-----------------------------|
--0----------------------------|--0--------------------------|


  |--3--|  |--3--|  |--3--|     |--3--|  |--3--|  |--3--|   
  E  E  E  E  E  E  E  E  E     E  E  E  E  E  E  E  E  E   
-----------------------0--3--|--7-----0-----------0--------|
--0-----------------0--------|-----8-----8-----0-----0-----|
--0--------------0-----------|--0-----------9-----0-----0--|
--------2-----2--------------|-----------7-----------------|
-----------2-----------------|--0--------------------------|
--5--------------------------|-----------------------------|


  |--3--|  |-3| |3|  |--3--|     |--3--|  |--3--|  |--3--|   
  E  E  E  E  S S E  E  E  E     E  E  E  E  E  E  E  E  E   
---------------------------0--|--5--2-----2-----------------|
--0---------------------0-----|--------3-----3-----3--------|
-----0----------2----0--------|-----------------2-----2-----|
--------2-----2---------------|--4-----------------------2--|
--0--------2------------------|-----------------------------|
------------------------------|--0--------------------------|


                                  NH   ^                  
       |-6-| |-6-| |-6-|  |---6---|                       
  Q    S S S S S S S S S  S  S    S    E  E  E  E  E  E   
---------------0-2-3-5-7--9-10-<>12-|--2--------3-----2--|
-----------2-3---------8-10-12------|--3--------3-----3--|
--2----2-4---------------------<>12-|--2-----------2-----|
--4---------------------------------|--------0-----------|
------------------------------------|-----0--------------|
--0---------------------------------|--0-----------------|


  |--3--|  |-3| |3|          |--3--|  |--3--|  |-3| |3|   
  E  E  E  E  S S E  Q       E  E  E  E  E  E  E  S S E   
--5-----------------------|--3-----------------L----2----|
--7-----7-------8----7----|--0-----------------0------0--|
--5--5-----5---------5----|--0--------0-----0-----0------|
--0-----------7---0--L----|--------2-----2---------------|
--------------------------|-----2------------------------|
--------------------------|--2---------------------------|


  |--3--|  |--3--|  |--3--|     |--3--|  |--3--|  |--3--|   
  E  E  E  E  E  E  E  E  E     E  E  E  E  E  E  E  E  E   
--3--------------------------|--3--------5--------6--------|
-----0-----0-----------------|--2--------2-----------------|
--------0-----0-----0--------|--------2-----2-----------6--|
-----------------2-----2-----|-----2-----------2-----8-----|
--------------------------2--|--0-----------------9--------|
--2--------------------------|-----------------------------|


  |--3--|  |--3--|  |--3--|     |--3--|  |-3| |3|  |--3--|   
  E  E  E  E  E  E  E  E  E     E  E  E  E  S S E  E  E  E   
--7--------------------------|------------------------------|
-----------7-----------------|--3--------3----5----3--------|
-----------7--------7--------|--4-----4---------4--L--------|
--------9-----9-----------9--|-----5--------5---------5--L--|
-----9-----------9-----9-----|------------------------------|
--9-----------------7--------|--5---------------------------|


                               ^                      
  Q    S S S S  S  S S  S      Q.       E    E    E   
-------------2-------9-14-|--------------------------|
--2--------2------11------|--<>3----------------<>3--|
--3------3-----11---------|----4-----------<>4-------|
-------4------------------|----4------<>4------------|
--------------------------|----2---------------------|
--4-----------------------|--------------------------|


    Q.       E    E    E       Q.       E    E    E   
---------------------<>2--|--<>7------<>7--<>5-------|
--<>2-----------<>2-------|----0----------------<>8--|
----2---------------------|----0---------------------|
-----------<>4------------|--------------------------|
----0---------------------|--------------------------|
--------------------------|----5---------------------|


    E    E    E  E  E  E       E  E  E    E    E    E       Q    E  E  E  E   
--<>5--<>3--<>2-----------|--<>3--------<>3--<>5--<>7--|--<>2----7-----------|
----3----3-------3--------|---------------0------------|------------0--0-----|
----2---------2-----2-----|----0---------------0-------|---------4-----------|
-----------------------4--|-------0--------------------|----4-------0--4-----|
--------------------------|----3-----3-----------------|------------------0--|
----0---------------------|----------------------------|---------------------|


                                         ^                         
                                         |--3--|  |-3| |3|         
  E  E  E  E  E  E     E  E  H           E  E  E  E  S S E  E  E   
--------------------|-----------------|-----------2---------------|
--3--------3--2--0--|--2--------------|--3-----------3---------3--|
--------0--4--2--0--|--3--3-----------|--4-----4---------4--4-----|
-----0--------------|--------4--------|--4--4----------4----------|
--------------------|--4--------------|--2------------------------|
--5-----------------|-----------------|---------------------------|


  |--3--|  |-3| |3|           |--3--|  |-3| |3|          
  E  E  E  E  S S E  E  E     E  E  E  E  S S E  E   E   
------------------------2--|--7-------------7----9--10--|
--2------------------2-----|--0--0----------------------|
--2--2----------2----------|--0-----0-----0-------------|
--4-----4-----4------------|-----------0----------------|
-----------4---------------|----------------------------|
---------------------------|--5-------------------------|


  |-3| |3|  |--3--|  |--3--|     |--3--|  |--3--|  |--3--|   
  E  S S E  E  E  E  E  E  E     E  E  E  E  E  E  E  E  E   
--5----3----2-----------------|--3--------5--------7--------|
-----3---------3-----------3--|-----0-----0--0--------0-----|
---------2--------2-----2-----|--------0--------0--------0--|
--0------------------4--------|-----------------------------|
------------------------------|-----------------------------|
------------------------------|--5-----------------5--------|


  |--3--|  |--3--|  |--3--|      |---3--|  |---3---|   |---3---|   
  E  E  E  E  E  E  E  E  E      E  E   E  E   E   E   E   E   E   
--4--------6--------7--------|--10----------------------------10--|
-----6-----6--6--------6-----|--12----------------12------12------|
--------4--------4--------4--|--11-----11-----11------11----------|
-----------------------------|------9------9----------------------|
-----------------------------|---9--------------------------------|
--6-----------------6--------|------------------------------------|


  |--3--|  |--3--|  |--3--|     |-6-| |-6-| |-6-| |-6-| |-6-| |-6-|  
  E  E  E  E  E  E  E  E  E     S S S S S S S S S S S S S S S S S S  
--9-----------------------9--|--2-----------------------2-----------|
-----------------7-----7-----|----2---2---------------2---2---2-----|
--------6-----6-----6--------|------3---3-------3---3-------3---3---|
-----4-----4-----------------|------------4---4---4---------------4-|
-----------------------------|--------------------------------------|
--4--------------------------|--------------4-----------------------|


  |-6-| |-6-|                                                 
  S S S S S S H           H        Q       E  E  E  E  E  E   
--------------2--------|--L-------------|--2--------3--L--2--|
------------2----------|----------------|--3-----------3-----|
------3---3------------|----------------|--------2-----------|
----4---4--------------|----------------|-----0-----0-----0--|
-----------------------|----------------|--------------------|
--4--------------------|----------------|--0-----------------|


                                                  |--3--|  |--3--|   
  E  E  E  E  E  E     E  E  E  E  E  E     E  E  E  E  E  E  E  E   
--5-----------------|--3-----------L--2--|--3-----3--2--0-----------|
-----------8--L--7--|--------------0-----|-----------------3--2--0--|
--5-----5-----5-----|--------0-----------|--------------------------|
-----0-----0-----0--|-----2-----2-----2--|-----2--------------------|
--------------------|--------------------|--------------------------|
--0-----------------|--2-----------------|--2-----------------------|


  E  E  E  E  E  E     E  E  E   E  E  E     E  E  E  E  E  E   
--3-----5-----3-----|--7------------------|--2-----------L--0--|
--------------2-----|-----------10--8-----|--------------3-----|
--------2-----------|--------9------9-----|--------2-----------|
-----2-----2-----2--|-----9------9-----9--|-----0-----0-----0--|
--0-----------------|--0------------------|--------------------|
--------------------|---------------------|--0-----------------|


            |--6--|  |-6-| |-6-| |-6-|                       
  E   S  S  S  S  S  S S S S S S S S S    E  E  E  E  E  E   
--2-----14----12----10---9---7---5---3-|--2--------3--L--2--|
---------------------------------------|--3-----3--------3--|
-----14----12----11----9---7---6---4---|-----2--------2-----|
--0------------------------------------|--------------------|
---------------------------------------|--------------------|
--0------------------------------------|--0-----------------|


                                            |--3--|  |--3--|  |--3--|   
  E  E  E  E  E  E     E  E  E  E  E  E     E  E  E  E  E  E  E  E  E   
--5--------3--L-----|--3-----------L--2--|--3--------7--5--3--2--0-----|
--------3--------7--|-----5-----------5--|--------0--8--7--5--3--2--3--|
-----5--------5-----|--------4-----4-----|-----0--------------------4--|
--0-----------------|--2--------2--------|--2--------------------------|
--------------------|--------------------|-----------------------------|
--------------------|--------------------|-----------------------------|


  |--3--|  |--3--|  |--3--|     |--3--|  |--3--|   |--3--|   
  E  E  E  E  E  E  E  E  E     E  E  E  E  E  E   E  E  E   
--3--------5--------6--------|--7--------9--------10--------|
--2--------------2-----------|------------------------------|
--------2-----2-----------6--|-----------7------------------|
-----2-----2-----------8-----|--------9-----9------------9--|
--0-----------------9--------|-----9-----------9------9-----|
-----------------------------|--9------------------7--------|


                                             |--3--|  |--3--|  |--3--|   
   E  E   E   Q     E      Q     H           E  E  E  E  E  E  E  E  E   
--10-----12--------13--|--14--------------|--5-----------------0--2--3--|
------6----------------|--10----10--------|-----------------2-----------|
------7--10--------10--|--11----11--------|--------2-----2--------------|
-------------12-----9--|--------12--------|-----2-----2-----------------|
-----------------------|------------------|--0--------------------------|
---6-------------------|---0--------------|-----------------------------|


  E  E  E  E  E  E     E  E  E  E  E  E     S S S S S S  S  S  Q     
--2-----------2-----|-----------0--2-----|------------3----10-15----|
--3-----3-----------|--3-----3-----------|----------3---11----------|
--2--2-----2-----2--|--2--2-----------2--|------0-3-----------------|
--------------------|--0-----------------|----0---------------------|
--------------------|--------------------|--1-----------------------|
--0-----------------|--------------------|---------------------0----|


  S S S S S S  S  S  Q       S S S S S S E  E  E     E  E  S S S S S S S S  
------------1----10-13----|-----------------------|----------1-------------|
----------3---10----------|------------8-L--------|--3---------3-------3-L-|
--------2-----------------|------0---8------------|--3-----------3---3-----|
----0-3-------------------|--------8--------------|--3-------------3-------|
--0-----------------------|----6------------------|------------------------|
---------------------0----|--5-----------5--7--8--|--3--1--0---------------|


                                            |--3--|  |-3| |3|         
  E  E  E  E  E   E     E  E  E  E  Q       E  E  E  E  S S E  E  E   
--4--------4--6---8--|--------3----------|---------------------------|
--4------------------|--3----------------|---------------------------|
--1--0--------7---8--|--------0-----0----|--3-------------3----2--0--|
--------3--1--0------|-----0-------------|--------1--1---------------|
---------------------|--1----------------|-----1--------1------------|
-----------------10--|--------5--3--L----|--1---------------1--L-----|


  |--3--|  |--3--|    |----3----|          |-3| |3|  |-3| |3|   
  E  E  E  E  E  E    E    E    E     Q    E  S S E  E  S S E   
--5--------------2-----------------|--7---------8----L----7----|
--------------3---------------<>3--|--0----0-------------------|
--2--------2-------------<>2-------|--------------0-----0---L--|
-----0--4-----------<>4------------|----------0------0---------|
-----------------------------------|---------------------------|
--0--------------------------------|--5------------------------|


   |--3--|  |-3| |3|  |-3| |3|          |--3--|  |-3| |3|   
   E  E  E  E  S S E  E  S S E     Q    E  E  E  E  S S E   
--10-------------8----L----7----|--8-------------L----7----|
---8--0--------0----------------|--5----------------5---L--|
---------7--0---------0------0--|-------5--------5---------|
-------------------0-----0------|-------------5------------|
--------------------------------|----------7---------------|
--------------------------------|--5-----------------------|


  |--3--|  |--3--|  |--3--|           |--3--|  |--3--|   
  E  E  E  E  E  E  E  E  E     Q     E  E  E  E  E  E   
--8--------------------------|--8----10--------8--------|
--8-----5--------------------|--7-----7-----------------|
-----5--------5--------------|--------------7-----7-----|
-----------5--------5--------|-----------7-----7-----0--|
-----------------7-----3--L--|--------------------------|
-----------------------------|--0-----------------------|


   |---3---|  |-3-|  |3|  |---3---|          |--3--|  |-3| |3|   
   E   E   E  E   S  S E  E   E   E     Q    E  E  E  E  S S E   
--12----------------10----8----------|--7-------------7----5----|
--10---------------------------------|--0----8--0--------0------|
----------11-------------------------|-------------7--0---------|
------10------7--10----------10---L--|-----------------------0--|
-----------------------9-------------|--------------------------|
-------------------------------------|--5-----------------------|


  |--3--|  |--3--|   |--3--|      |--3--|  |--3--|   |-3-| |3|   
  E  E  E  E  E  E   E  E  E      E  E  E  E  E  E   E   S S E   
--7--------9--------10--------|--10------------------L-----9----|
------------------------------|----------------------7--10------|
--------7-----7------------7--|------------------7--------------|
-----9-----------9------9-----|---------0-----7-----------------|
--8------------------8--------|------0-----9--------------------|
------------------------------|---0-----------------------------|


   |--3--|   |--3--|   |---3---|                            
   E  E  E   E  E  E   E   E   E      Q    S S  S  S  Q     
--10--------12--------13----------|--14--------------13----|
------------------------------11--|--12-----------12--L----|
-------------------9------11------|--11--------11----------|
---------8------8------8----------|----------9-------------|
------9------9--------------------|--------9---------------|
---8------------------------------|---9--------------------|


   Q     Q.      E        H.            
--14----15------17--|--<>10------------|
--------------------|-----0------------|
----------------17--|------------------|
--10----------------|------------------|
--------------------|------------------|
--10----------------|-----5------------|


  T T T T T T T T T T T T T T T T  T  T  T  T  T  T  T  T     H         Q     
------------------------3-------7----------10-------10-15-|---L--------12----|
----------------3-----3-------8---------12-------12----15-|---L--------------|
--------4-----4-----4-------7--------12-------12----------|------------12----|
------5-----5-----5-------9-------12----------------------|------------------|
----5-----5-----------------------------------------------|------------------|
--5-------------------------------------------------------|------------------|


                                |-3| |3|  |-3| |3|   
   Q    E   E   E   E      Q    E  S S E  E  S S E   
--14-------15---L--12--|--10----2-------------------|
--------0--------------|---7-------3------3---------|
--14---------------12--|---7----2------2-----2------|
-----------------------|---0--------------4------4--|
-----------------------|-------------5---------0----|
-----------------------|----------------------------|


  |--3--|  |--3--|  |-3| |3|     |-3| |3|  |-3| |3|  |-3| |3|   
  E  E  E  E  E  E  E  S S E     E  S S E  E  S S E  E  S S E   
---------------------------2--|--5--2------2-------------------|
-----------------------3------|--3------3-----3------3---------|
--2-----------------2----2----|------------2------2-----2------|
-----4-----------4--0---------|-------4--------------4------4--|
--------5--0--5---------------|-----------------5---------0----|
--0---------------------------|--------------------------------|


  |--3--|  |--3--|  |-3| |3|     |--3--|  |-3| |3|  |--3--|   
  E  E  E  E  E  E  E  S S E     E  E  E  E  S S E  E  E  E   
---------------------------2--|--5--2-----2------------------|
-----------------------3------|--------3-----3------3--------|
--2-----------------2----2----|------------------2-----2-----|
-----4-----------4--0---------|--4-------------5----------4--|
--------5--0--5---------------|------------------------------|
--0---------------------------|------------------------------|


  |--3--|  |-3| |3|  |-3| |3|     |--3--|  |--3--|  |--3--|   
  E  E  E  E  S S E  E  S S E     E  E  E  E  E  E  E  E  E   
----------------------------2--|--7-----0--------------------|
------------------------3------|-----8-----8-----0-----------|
--2-------------0----2---------|--0-----------9-----9-----0--|
-----4------------4-------4----|-----------------------9-----|
--------5--0--5----------------|-----------------------------|
--0----------------------------|--0--------------------------|


  |--3--|  |--3--|  |--3--|     |--3--|  |--3--|  |--3--|   
  E  E  E  E  E  E  E  E  E     E  E  E  E  E  E  E  E  E   
-----------------------0--3--|--7-----0-----------0--------|
--0-----------------0--------|-----8-----8-----0-----0-----|
--0--------------0-----------|--0-----------9-----0-----0--|
--------2-----2--------------|-----------7-----------------|
-----------2-----------------|--0--------------------------|
--5--------------------------|-----------------------------|


  |--3--|  |-3| |3|  |--3--|     |--3--|  |--3--|  |--3--|   
  E  E  E  E  S S E  E  E  E     E  E  E  E  E  E  E  E  E   
---------------------------0--|--5--2-----2-----------------|
--0---------------------0-----|--------3-----3-----3--------|
-----0----------2----0--------|-----------------2-----2-----|
--------2-----2---------------|--4-----------------------2--|
--0--------2------------------|-----------------------------|
------------------------------|--0--------------------------|


                                  NH   ^                  
       |-6-| |-6-| |-6-|  |---6---|                       
  Q    S S S S S S S S S  S  S    S    E  E  E  E  E  E   
---------------0-2-3-5-7--9-10-<>12-|--2--------3-----2--|
-----------2-3---------8-10-12------|--3--------3-----3--|
--2----2-4---------------------<>12-|--2-----2--0--L--2--|
--4---------------------------------|-----0--------------|
------------------------------------|--------------------|
--0---------------------------------|--0-----------------|


  |--3--|  |-3| |3|                                                     
  E  E  E  E  S S E  Q        H        E  E     E   E   E   E   E   E   
--5-----------------------|--10--------------|-----------------10--15--|
--7-----7-------8----7----|---0--------------|--0----------12----------|
--5--5-----5---------5----|---0-----------0--|---------12--------------|
--0-----------7---0--L----|------------0-----|-----12------------------|
--------------------------|------------------|-------------------------|
--------------------------|---5--------------|-------------------------|


   |---3--|  |--3--|  |--3--|     |-6-| |-6-| |---7---| 7 7       
   E   E  E  E  E  E  E  E  E     S S S S S S S S S S S S S Q     
--10---9--7--5--3--2--0--------|--7-5----------------------------|
--12--10--8--7--5--3--2--3--2--|------8-7-5----------------------|
-------------------------4--2--|------------7-6-4----------------|
-------------------------------|------------------7-5-4----------|
-------------------------------|------------------------7-5-4----|
-------------------------------|----------------------------7----|


  Q    H           H.              E  E  E  E  E  E     E  E  E  E  E  E   
-------5--------|--L------------|--------------0-----|-----------0--2-----|
-------5--------|--L------------|--------3-----------|--------3-----------|
----------------|---------------|-----2-----2-----2--|-----2-----------2--|
----------------|---------------|--0-----------------|--0-----------------|
--L-------------|---------------|--------------------|--------------------|
--L-------------|---------------|--------------------|--------------------|


  E  E  E  E  E  E     E  E  E  E  E  E     H.              H.             
--------------0-----|-----------0--2-----|--2------------|--L------------||
--------3-----------|--------3-----------|--3------------|--L------------||
-----2-----2-----2--|-----2--------------|--2------------|--L------------||
--0-----------------|--0-----------0-----|---------------|---------------||
--------------------|-----------------0--|---------------|---------------||
--------------------|--------------------|--0------------|--L------------||




Duration Legend
---------------
W - whole
H - half
Q - quarter
E - 8th
S - 16th
T - 32nd
X - 64th
. - note dotted
|-n-|  - n-tuplets


Tablature Legend
----------------
L - tied note
x - dead note
g - grace note
(n) - ghost note
> - accentuded note
NH - natural harmonic
AH - artificial harmonic
TH - tapped harmonic
SH - semi harmonic
PH - pitch harmonic
h - hammer on
p - pull off
b - bend
br - bendRelease
pb - preBend
pbr - preBendRelease
brb - bendReleaseBend
\n/ - tremolo bar dip
\n - tremolo bar dive
-/n - tremolo bar Release up
/n\ - tremolo bar inverted dip
/n - tremolo bar return
-\n - tremolo bar Release down
S - shift slide
s - legato slide
/ -  slide into from below or out of upwards
\ -  slide into from above or out of downwards
~ - vibrato
W - wide vibrato
tr - trill
TP - tremolo picking
T - tapping
S - slap
P - pop
< - fade in
^ - brush up
v - brush down

        
Comments

No comments yet