Gametabs
Home
Tabs
Random

Westward Tide

Average rating: No ratings

Composer:

Tabber:

Style:

Instrument:

Created: December 24, 2021 at 12:00 AM

            Just a small section of the song that I like. Ending is not really correct, but it doesn't sound too bad.

The section from 1:12 to 1:38
https://www.youtube.com/watch?v=FhtHU2V4yRg

---------------

E|-3--------------|------------------4---|-3--------------|-----2---3---------------|
B|------3----3----|------1---3---4-------|------3----3----|-------------3-----------|
G|------3----3----|------3-------3-------|------3----3----|-----------------3-------|
D|----------------|----------------------|----------------|---------------------5---|
A|----------------|-1--------------------|----------------|---------1-------1-------|
D|-1--------------|----------------------|-1--------------|-1-----------------------|


E|----------------|----------------|----------------|----------------|-3--------------|
B|------2----2----|------0----0----|------2----2----|------0----0----|------3----3----|
G|------2----2----|------2----2----|------2----2----|------2----2----|------3----3----|
D|-4--------------|----------------|----------------|----------------|----------------|
A|----------------|-0--------------|----------------|-0--------------|----------------|
D|-0--------------|----------------|-0--------------|----------------|-1--------------|


E|------------------4---|-3--------------|-----2---3---------------|----------------|
B|------1---3---4-------|------3----3----|-------------3-----------|------2----2----|
G|------3-------3-------|------3----3----|-----------------3-------|------2----2----|
D|----------------------|----------------|---------------------5---|-4--------------|
A|-1--------------------|----------------|---------1-------1-------|----------------|
D|----------------------|-1--------------|-1-----------------------|-0--------------|


E|----------------|------------------5---|-5---0---0---9---9----|
B|------0----0----|------5---2---2-------|---------0-------5----|
G|------2----2----|------2-------2-------|-2-------2------------|
D|----------------|------4-------4-------|----------------------|
A|-0--------------|----------------------|-0--------------------|
D|----------------|-0--------------------|----------------------|

        
Comments

No comments yet