Gametabs
Home
Tabs
Random

Sultana Dreaming

Average rating: 5.000

3 ratings

Composer:

Tabber:

Style:

Instrument:

Created: September 25, 2021 at 12:00 AM

                               Sultana Dreaming                                 


                                                          Cecil Chau (GuitarSVD)
Guitarra (Capo 3)



     Q    Q    Q    Q       W                   Q    Q    Q    Q     
E||-----------------0----|-------------------|-----------------0----|
B||-------3----2----2----|--3----------------|-------3----2----2----|
G||------------0---------|--4----------------|------------0---------|
D||-------0--------------|-------------------|-------0--------------|
A||----------------------|-------------------|----------------------|
E||--3-------------------|--L----------------|--3-------------------|


  W                   Q    Q    Q    Q       W                 
-------------------|-------0---------2----|--0----------------|
--3----------------|-------2----4----4----|--2----------------|
--4----------------|------------4---------|-------------------|
-------------------|----------------------|-------------------|
-------------------|--0-------------------|--L----------------|
--L----------------|----------------------|-------------------|


  |----3----|    |----3----|       |----3----|    |----3----|     
  Q    Q    Q    Q    Q    Q       Q    Q    Q    Q    Q    Q     
-----------------2--------------|-----------------2--------------|
--3----2----3---------3----2----|--3----2----3---------3----2----|
--2-----------------------------|--2-----------------------------|
--0-----------------------------|--4-----------------------------|
--------------------------------|--------------------------------|
--------------------------------|--------------------------------|


                                   ^                                          
  |----3----|    |----3----|                                                  
  Q    Q    Q    Q    Q    Q       W                   Q.     S  S Q    Q     
-----------------0--------------|-------------------|--------------2---------|
--2----0----2---------2----0----|--1----------------|--3------2h-3------3----|
--2-----------------------------|--0----------------|--2---------------------|
--------------------------------|--2----------------|--0---------------------|
--------------------------------|-------------------|------------------------|
--------------------------------|--3----------------|------------------------|


  Q.     S S Q    Q       H        H           H        Q    Q     
-------------2---------|--------------------|---------------------|
--2--------2------2----|--0-----------------|--0------------------|
--2------4-------------|--0--------2--------|-----------2----0----|
--4--------------------|-----------0--------|-----------2---------|
-----------------------|--------------------|--0--------L----0----|
-----------------------|--------------------|---------------------|


  Q.     S  S Q    Q       Q.     S  S Q    Q       H        H         
--------------2---------|--5------4h-5-2---------|--------------------|
--3------2h-3------3----|--2----------------2----|--0-----------------|
--2---------------------|--2---------------------|--0-----------------|
--0---------------------|--4---------------------|-----------0--------|
------------------------|------------------------|--------------------|
------------------------|------------------------|-----------0--------|


  H        H           Q.     S S H           Q.     S  S H         
--------------------|----------------------|--------------0--------|
--0--------0--------|--0--------0-3--------|--2------1h-2----------|
-----------2--------|--0------3------------|--2--------------------|
--------------------|----------------------|-----------------------|
--0--------2--------|----------------------|-----------------------|
--2-----------------|--0-------------------|--2--------------------|


  ^                                                                     
  Q.     S S H           Q.     S S Q    Q       Q    Q    Q    E.   S  
----------------------|--0--------0-3----6----|--5---------------------|
--3--------3-6--------|--1------4---3---------|--3---------3----2h---3-|
--3------6------------|-----------------------|--2----2----------------|
--3-------------------|-----------------------|--0---------------------|
----------------------|-----------------------|------------------------|
--3-------------------|--0----------3---------|------------------------|


  W                   Q    Q    Q    E.   S    W                 
--5----------------|------------------------|--5----------------|
--3----------------|------------3----2h---3-|--3----------------|
-------------------|--2----2----------------|-------------------|
--L----------------|--4---------------------|--L----------------|
-------------------|--0---------------------|--L----------------|
-------------------|------------------------|-------------------|


  ^                                                                  
  Q    Q    Q    E.   S    H        H           Q.     S S H         
------------------------|--5--------6--------|--8------6-5----------|
------------3----1h---3-|--------------------|--5----------8--------|
--2----2----------------|--------------------|--5----------5--------|
--0---------------------|--------------------|-------------5--------|
--1---------------------|--L-----------------|----------------------|
--1---------------------|--L-----------------|--0-------------------|


                       ^                                          
  H        H           Q    Q    Q    E.   S    W                 
--1--------6--------|--5---------------------|--5----------------|
-----------6--------|--3---------3----2h---3-|-------------------|
-----------7--------|--2----2----------------|-------------------|
--------------------|--0---------------------|--L----------------|
--1--------6--------|--0---------------------|--L----------------|
--1-----------------|------------------------|-------------------|


  |---3--|  |---3--|  |---3--|  |---3--|   
  E  E   E  E  E   E  E  E   E  E  E   E   
------------------------------------------|
--3-------------------3-------------------|
-----2p--0-----0h--2-----2p--0-----0h--2--|
--0---------0-------------------0---------|
----------------------0-------------------|
------------------------------------------|


  |---3--|  |---3--|  |---3--|  |---3--|   
  E  E   E  E  E   E  E  E   E  E  E   E   
------------------------------------------|
--3-------------------3-------------------|
-----2p--0-----0h--2-----2p--0-----0h--2--|
------------0-------------------0---------|
------------0-----------------------------|
--3-------------------3---------2---------|


  |---3--|  |---3--|  |---3--|  |---3--|   
  E  E   E  E  E   E  E  E   E  E  E   E   
------------------------------------------|
--3-------------------3-------------------|
-----2p--0-----0h--2-----2p--0-----0h--2--|
------------0-------------------0---------|
----------------------0-------------------|
--L---------------------------------------|


  |---3--|  |---3--|  |---3--|  |---3--|   
  E  E   E  E  E   E  E  E   E  E  E   E   
------------------------------------------|
--3-------------------3-------------------|
-----2p--0-----0h--2-----2p--0-----0h--2--|
------------0-------------------0---------|
------------0-----------------------------|
--3-------------------3---------2---------|


  |--3--|  |--3--|  |--3--|  |--3--|     |--3--|  |--3--|  |--3--|  |--3--|   
  E  E  E  E  E  E  E  E  E  E  E  E     E  E  E  E  E  E  E  E  E  E  E  E   
--0-----------------0-----------------|--0-----------------0-----------------|
-----0-----------0-----0-----------0--|-----0-----------0-----0-----------0--|
--------2-----2-----------2-----2-----|--------2-----2-----------2-----2-----|
-----------2-----------------2--------|-----------2-----------------2--------|
--------------------2-----------------|--0--------2--------0-----------------|
--L--------0--------------------------|-----------------------------4--------|


  |--3--|  |--3--|  |--3--|  |--3--|     |--3--|  |--3--|  |--3--|        
  E  E  E  E  E  E  E  E  E  E  E  E     E  E  E  E  E  E  E  E  E  Q     
--0-----------------0-----------------|--0-----------------0-------------|
-----0-----------0-----0-----------0--|-----0-----------0-----0----------|
--------2-----2-----------2-----2-----|--------2-----2-----------2-------|
-----------2-----------------2--------|-----------2-----------------2----|
--------------------2-----------------|--0--------2--------0-------------|
--L--------0--------------------------|-----------------------------0----|


  |--3--|                    |--3--|                  |--3--|                  
  E  E  E  Q    Q    Q       E  E  E  H.              E  E  E  Q    Q    Q     
--------------------------|------------------------|----------------3----1----|
----------------3----2----|------------------------|--------1--3--------------|
-----------0--------------|--2--------2------------|--3-----3--3--------------|
--------4-----------------|--------6---------------|-----3--------------------|
-----2--------------------|-----4------------------|--1-----------------------|
--0-----------------------|--2---------------------|--------------------------|


  |--3--|                        |---3--|             
  E  E  E  Q    H           Q    E  E   E  Q    Q     
--0----------------------|-----------------2---------|
-----------3----1--------|--3----L--2h--3--3----3----|
--------0--L----0--------|--2----2-------------------|
-----2-------------------|--0----0--------------0----|
--3----------------------|---------------------------|
-------------------------|---------------------------|


       |--3--|                                                           
  Q    E  E  E  Q    Q       Q    Q    Q    Q       Q    Q    Q    Q     
----------------2---------|------------7---------|----------------------|
--2----L-----2-------2----|--0---------0---------|--0---------0---------|
--2----2--4---------------|--0-------------------|------------0----2----|
--4----4-------------4----|-------0---------0----|-------2--------------|
--------------------------|----------------------|--0---------0----0----|
--------------------------|--3---------3---------|----------------------|


  |--3--|  |---3--|  |--3--|          |--3--|  |---3--|  |--3--|        
  E  E  E  E  E   E  E  E  E  Q       E  E  E  E  E   E  E  E  E  Q     
---------------------2-------------|--5--------L--4h--5--2-------------|
--3--------3--2h--3--3--------3----|--2--------2---------2--------2----|
--------2--2------------2----------|-----------2------------2-----2----|
-----4---------------------4-------|--------4------------------4--4----|
--5---------------------------5----|-----4-----------------------------|
-----------------------------------|--2--------------------------------|


                        NH                           
  |--3--|                                            
  E  E  E  Q    Q       Q       Q    Q    Q    Q     
-----------------------------|----------------------|
--3--------0----3----<>12----|--3----0--------------|
--------0--------------------|--0----0----2----4----|
-----0-----0-----------------|-------0----2----4----|
-----------------------------|------------0----2----|
--3--------------------------|--3-------------------|


  |--3--|  |--3--|       |--3--|     |--3--|  |--3--|       |--3--|   
  E  E  E  E  E  E  Q    E  E  E     E  E  E  E  E  E  Q    E  E  E   
-----------5--9--5----------------|-----------0--3--0--2----5--4--5--|
--5--7--8-----------7----3--2--3--|--0--2--3-----------3-------------|
--------0-------------------------|--------0-------------------------|
--------------------0-------------|--------------------0-------------|
-----------0----------------------|-----------0----------------------|
--0-------------------------------|--0-------------------------------|


       |---3--|       |---3--|                                                 
  Q    E  E   E  Q    E  E   E     Q    Q     Q     Q        W                 
--7----L--9--10--7----L--9--10--|--6----8----10----12----|--10----------------|
--0--------------0--------------|--3----5-----6-----8----|---7----------------|
--0----0---------0----0---------|--3----5-----7-----9----|---7----------------|
-------0--------------0---------|------------------------|---0----------------|
--------------------------------|------------------------|--------------------|
--3--------------3--------------|--3----5-----6-----8----|--------------------|


  |---3--|  |---3--|  |--3--|  |--3--|     |--3--|  |--3--|  |--3--|  |--3--|   
  E  E   E  E  E   E  E  E  E  E  E  E     E  E  E  E  E  E  E  E  E  E  E  E   
------------5---------------------------|--5--------2-----------------2--------|
--3--2h--3-----3p--2--3-----3--2-----3--|--2-----2-----2-----------2-----2-----|
--2---------2---------2--2--------2-----|-----4-----------4-----4-----------4--|
--0-------------------0-----------------|--------------------4-----------------|
----------------------------------------|--------------------------------------|
----------------------------------------|--2-----------------------------------|


  |--3--|  |--3--|  |--3--|  |--3--|     |---3--|  |--3--|  |---3--|         
  E  E  E  E  E  E  E  E  E  E  E  E     E  E   E  E  E  E  E  E   E  E  E   
-----------0--------------------------|-------------------------------------|
--------0-----0-----3--------2-----3--|--0----------------------------------|
-----2-----2-----2-----2--------2-----|-------------------------------------|
--2-----------------------2-----------|------------2------------------2-----|
--2-----------------------------------|-----0h--2-----2--0-----0h--2-----2--|
--------------------------------------|--0------------------0---------------|


  Q    Q    Q    Q       Q    Q    Q    Q       Q    Q    Q    Q     
-------5----4---------|--2----0--------------|----------------------|
-------5----5----2----|--3----2----2---------|------------0----2----|
-----------------2----|------------2----2----|--L----2----2----2----|
----------------------|--0--------------0----|-------2--------------|
--0-------------------|----------------------|----------------------|
--0-------------------|----------------------|--0-------------------|


  Q    Q    H           Q    Q    Q    Q       Q    Q    Q    Q     
---------------------|-------5----4---------|--2----0--------------|
--0---------L--------|-------2----2----2----|--3----2----2---------|
--2---------1--------|-------2---------2----|------------2----2----|
-------2-------------|----------------------|--0--------------0----|
---------------------|----------------------|----------------------|
--0------------------|--2-------------------|----------------------|


                                             |--3--|  |--3--|  |--3--|        
  Q    Q    Q    Q       W                   E  E  E  E  E  E  E  E  E  Q     
----------------------|--0----------------|----------------------------------|
------------0----2----|--0----------------|--------------------2-------------|
--L----2----2----2----|--1----------------|--2--------L--1--2-----------2----|
-------2--------------|-------------------|--0-----0--4--------L-----0-------|
----------------------|-------------------|-----0-----------------0----------|
--0-------------------|--0----------------|----------------------------------|


  |--3--|  |--3--|  |--3--|          |--3--|   |--3--|  |--3--|  |--3--|   
  E  E  E  E  E  E  E  E  E  Q       E  E  E   E  E  E  E  E  E  E  E  E   
----------------------------------|---------------------------------------|
--5--------L--4--5--2-------------|---------------------------------------|
-----------2--------L--------1----|---------------------1--------1--------|
--------4-----------------4--L----|--4-----2h--4--2-----2-----2-----2-----|
-----4-----------------4----------|--2--2------------2-----2-----------2--|
--2-------------------------------|---------------------------------------|


                                         ^                                    
  |--3--|  |--3--|  |--3--|  |--3--|                                          
  E  E  E  E  E  E  E  E  E  E  E  E     E  E  E  E  E  E  E  E  E  E  E  E   
--------------------------------------|-----5--4--5--0--5--4--5--0--5--4--5--|
-----------------------------0--------|--------------------------------------|
--L-----------------------------1-----|--2-----------------------------------|
--------2--4--2-----------2--------2--|--2-----------------------------------|
-----2-----------2-----2--------------|--0-----------------------------------|
--0-----------------0-----------------|--0-----------------------------------|


  ^                                       
           3 3    3                       
  E  E  E  S Q    Q    E  E  E  E  E  E   
--3--------------------3--------3--------|
--------1----0----1----------1-----1-----|
--0--0--L--L--------------3-----------3--|
--2--------------------------------------|
-----------------------1-----------------|
--0--------------------------------------|


  E  E  E   E  E  E  E   E  E  E  E   E     W.                 
--5--------------------------------------|--5----------------||
-----3--2h--3-----3--2h--3-----3--2h--3--|--3----------------||
--2------------2------------2------------|-------------------||
--0--------------------------------------|--0----------------||
-----------------------------------------|-------------------||
-----------------------------------------|-------------------||




Duration Legend
---------------
W - whole
H - half
Q - quarter
E - 8th
S - 16th
T - 32nd
X - 64th
. - note dotted
|-n-|  - n-tuplets


Tablature Legend
----------------
L - tied note
x - dead note
g - grace note
(n) - ghost note
> - accentuded note
NH - natural harmonic
AH - artificial harmonic
TH - tapped harmonic
SH - semi harmonic
PH - pitch harmonic
h - hammer on
p - pull off
b - bend
br - bendRelease
pb - preBend
pbr - preBendRelease
brb - bendReleaseBend
\n/ - tremolo bar dip
\n - tremolo bar dive
-/n - tremolo bar Release up
/n\ - tremolo bar inverted dip
/n - tremolo bar return
-\n - tremolo bar Release down
S - shift slide
s - legato slide
/ -  slide into from below or out of upwards
\ -  slide into from above or out of downwards
~ - vibrato
W - wide vibrato
tr - trill
TP - tremolo picking
T - tapping
S - slap
P - pop
< - fade in
^ - brush up
v - brush down

        
Comments

No comments yet