Gametabs
Home
Tabs
Random

Voyager

Average rating: No ratings

Composer:

Tabber:

Style:

Instrument:

Created: October 01, 2007 at 12:00 AM

            Voyager
Final Fantasy XI
Composed by Nobuo Uematsu

8/17/06

e----------0-----------------------------0----------------3-3--5-7-----
B-----3--3----3--1--0--1--3---------3------3--1--0--0--3---------------
G--0------------------------0------------------------------------------
D---------------------------------0------------------------------------
A----------------------------------------------------------------------
E----------------------------------------------------------------------

e--3-----------3---7---5
B--------3--------------
G-----------------------
D-----------------------
A-----------------------
E----------------------- x2

e--3--2--3--5--3-----0------------3--2--3--5--3-----0----------
B-----------------0-------3----------------------0-------3-----
G--------------------------------------------------------------
D--------------------------------------------------------------
A--------------------------------------------------------------
E--------------------------------------------------------------

e---------------------------
B----0-----0-1--3--1--0-----
G--0----2------------------2
D---------------------------
A---------------------------
E---------------------------

e--------------0-------0-0--2--3--2-----------3--2--3--5--3-----0-----
B-----0--1--3------------------------------4-----------------0-------3
G--2------------------------------------------------------------------
D---------------------------------------------------------------------
A---------------------------------------------------------------------
E---------------------------------------------------------------------

e-----3--2--3--5--3-----0------------------------------0--0--2--3--2--0-----0
B--0-----------------0-------3-------0--0-----0--1--3--------------------3---
G------------------------------------------2---------------------------------
D----------------------------------------------------------------------------
A----------------------------------------------------------------------------
E----------------------------------------------------------------------------

        
Comments

@Adrian (April 13, 2008 at 8:44 PM)

thanks alot for this tab :), i just wish there were more tabs from ffxi, there's alot of really great music in that game, some specifically for guitar, hope you'll do more soon :)