Gametabs
Home
Tabs
Random

Voyager

Average rating: No ratings

Composer:

Tabber:

Style:

Instrument:

Created: September 08, 2008 at 12:00 AM

            Voyager
Final Fantasy XI


G||-------|-------|-------|-------|-------|-------|-------|-------|-------|
D||-------|-------|-------|-------|-------|-------|-------|-------|-------|
A||-------|-------|-------|-------|-------|-------|-------|-------|-------|
E||-------|-------|-------|-------|-------|-------|-------|-------|-------|


                  Q    Q    S S S E  S S S    S E  E.  S Q    E.  S S  
-------|-------|---------------------------|--------------------------|
-------|-------|---------------------------|--------------------------|
-------|-------|------------7-9-5----------|--------------------------|
-------|-------|------------------8--8-5-0-|--3----0---3------0---3---|


  S E  E.  S Q    S E  E     S E  E.  S Q    S S S S S  
--------------------------|----------------------------|
--------------------------|----------------------------|
--------------------0--2--|--3----0---3------3---0-3-0-|
--3----0---3------3-------|--------------------3-------|


  S E  E.  S E  S S S E  E     S E  E.  S Q    S S S S S  
----------------------------|----------------------------|
----------------------0--1--|-----------0------0-----0---|
--3----0---3----3---3-------|-------2------------2-2---2-|
----------------------------|--0-------------------------|


  S E  E.  S E  S S S S S E     S E  E.  S Q    S E  E   
-----------------------------|--------------------------|
-------0---2----2---2-4-5----|--------------------------|
--------------------------2--|-------3------------3-----|
--0--------------------------|--1--------1------1----1--|


  E.  E.  S   E  E   S S  S E     S E  S S S E  Q    E  E   
-----------------8--11-8-------|---------------------------|
------4---9s-11----------11-9--|--0-2--2---2-0--2----------|
--2----------------------------|------------------------0--|
-------------------------------|---------------------3-----|


  S E  S S S E  Q    S S S S    S E  S S S E  Q    E  E   
-----------------------------|---------------------------|
-----------------------------|--0-2--2---2-0--2----------|
--0-2--2---2-0--2----0-2-5-2-|------------------------0--|
-----------------------------|---------------------3-----|


  S E  S S S E  Q    S S S S    S E  S S S E  Q    E  E   
-----------------------------|---------------------------|
-----------------------------|---------------------------|
--0-2--2---2-0--2----0-2-5-2-|--2-3--3---3-2--3-------3--|
-----------------------------|---------------------3-----|


  S E  S S S S S E  E  S S S S    S E  S S S S S S S E  E  E   
-------------------------------|------------------------------|
-------------------------------|-------------3---0-2-------2--|
-------------0---2-------------|--0-2--2---2---2--------2-----|
--0-2--2---2---2-------0-2-5-2-|------------------------------|


  S E  S S S S S E  S S E  E     S E  S S S E  Q    E  E   
------------------------------|---------------------------|
-------------2----------------|--0-2--2---2-0--2----------|
----0--0---0---0-2----2----2--|------------------------0--|
--3---------------------2-----|---------------------3-----|


  S E  S S S E  Q    S S S S    S E  S S S E  Q    E  E   
-----------------------------|---------------------------|
-----------------------------|--0-2--2---2-0--2----------|
--0-2--2---2-0--2----0-2-5-2-|------------------------0--|
-----------------------------|---------------------3-----|


  S E  S S S E  Q    Q       S E  S S S E  Q    E  E   
--------------------------|---------------------------|
----------------0---------|---------------------------|
--0-2--2---2-4------------|--2-3--3---3-2--3-------3--|
---------------------3----|---------------------3-----|


  S E  S S S S S E  E  E  E     S E  S. S. E.   S   E  E  E   
-----------------------------|-------0-----5b---5pb-5--0-----|
-----------------------------|-------------------------------|
-------------0---2--------2--|--3-3-----------------------3--|
--0-2--2---2---2-------2-----|-------------------------------|


  S E  E.  E.  S S S E   E     S E  S S S Q.     E  E   
-----------7---7-9-9-9b--7--|--------------------------|
-------7--------------------|-------7---7-9------------|
--5-5-----------------------|--5-7---------------0--2--|
----------------------------|--------------------------|


  S E  S S S E  H          
-----------7-9-----------||
-------9-----------------||
--5-7--------------------||
-------------------------||

        
Comments

No comments yet