Gametabs
Home
Tabs
Random

The Kingdom of San d'Oria

Average rating: No ratings

Composer:

Tabber:

Style:

Instrument:

Created: August 02, 2021 at 12:00 AM

            "The Kingdom of San d'Oria" - Final Fantasy XI
Composers : Naoshi Mizuta
Arrangement : judgexii
Tuning : Standard EADGBe
BPM : 74 (4/4 time)

   Intro
   q.      s s h                 q.      s s h                 q.      s s h                 q.      s s q.      s s
e-----------------------------|-----------------------------|-----------------------------|----------------------0-1----||
B-----------------------------|-----------------------------|-----------------------------|--3--------------------------||
G--0-------0-0-0--------------|--0---------2-0--------------|--0-------0-0-0--------------|--0---------2-0--------------||
D-----------------------------|----------3------------------|-----------------------------|----------3------------------||
A--3-------3-3-3--------------|--3-------3-3-3--------------|--3-------3-3-3--------------|--3-------3-3-3--------------||
E-----------------------------|-----------------------------|-----------------------------|-----------------------------||


   Part 1
   e  e  s s s s e  q    s s     e  e  s s s s e  q    s s     e  e  s s s s e  e  e  e      q    s s s s q.      s s  
e--3-----5-3-1---3-------0-1--|--3---------------------0-1--|--3-----5-3-1---3--8--5------|-------1-0-------------0-1---|
B-----1-------------1---------|-----1--3-1-3---1------------|-----1-------------------6---|--3--------3-1-3-------------|
G--0---------0-0-0------------|--0-----------2----0---------|--0---------0-0-0------------|-------------2-0-------------|
D-----------------------------|-----------------------------|-----------------------------|-----------------------------|
A--3---------3-3-3------------|--3---------3-3-3------------|--3---------3-3-3------------|--3--------3-3-3-------------|
E-----------------------------|-----------------------------|-----------------------------|-----------------------------|

   e  e  s s s s e  q    s s     e  e  s s s s e  q    s s     e  e  s s s s e  e  s s e     q    s s s s h  
e--3-----5-3-1---3-------0-1--|--3---------------------0-1--|--3-----5-3-1---3--8--5-3----|-------1-0-------------------|
B-----1-------------1---------|-----1--3-1-3---1------------|-----1--------------------6--|--3--------3-1-1-------------|
G--0---------0-0-0------------|--0-----------2-0--0---------|--0---------0-0-0------------|--0----------2-0-------------|
D-----------------------------|-----------------------------|-----------------------------|-----------------------------|
A--3---------3-3-3------------|--3---------3-3-3------------|--3---------3-3-3------------|--3--------3-3-3-------------|
E-----------------------------|-----------------------------|-----------------------------|-----------------------------|

   q.      s s h                 q.      s s h                 q.      s s h                 q.      s s q    q
e-----------------------------|-----------------------------|-----------------------------|-----------------------------||
B-----------------------------|-----------------------------|-----------------------------|--3--------------------------||
G--0-------0-0-0--------------|--0---------2-0--------------|--0-------0-0-0--------------|--0---------2-0----0---------||
D-----------------------------|----------3------------------|-----------------------------|----------3------------------||
A--3-------3-3-3--------------|--3-------3-3-3--------------|--3-------3-3-3--------------|--3-------3-3-3--------------||
E-----------------------------|-----------------------------|-----------------------------|-----------------------------||


   Part 2 - Coda
   q.      s s e  e  e  e        e.   s e  s s q    e  s s     q.      s s e  e  e  e        e.   s e  s s q    q  
e-----------------------1-----|--1----0-0-------------------|-----------------------5-----|--5----3-3-------------------|
B--3-----------------3--------|---------------------1-------|--3-----------------3--------|---------------------1-------|
G-----------------0-----------|--0-----------2-0------------|-----------------0-----------|--0-----------2-0------------|
D--0-------0-0-0--------------|------------3----------------|--0-----------0-----0--------|------------3----------------|
A-----------------------------|--3---------3-3-3----3--2-0--|-----------------------------|--3---------3-3-3------------|
E--3-------3-3-3--------------|-----------------------------|--3-------3-3-3-----3--------|-----------------------------|

   q.      s s e  e  e  e        e.   s e  s s q    e  s s     q.      s s q    e  s s       q.      s s q.      s s
e--8-----------------7--8-----|--7----5-5-------------------|------------------------0----|----------------------0-1----|
B--5-------5-5-5--8--5--------|--------------------------0--|--1----------------3---------|--3--------------------------|
G--5-------5-5-5-----5--------|--5---------5-5-5----2-------|--2-------2-2-1--------------|--5-------5-5-4--------------|
D-----------------------------|--7---------7-7-7------------|--0-------0-0-0--------------|--5-------5-5-5--------------|
A-----------------------------|--5---------5-5-5------------|-----------------------------|-----------------------------|
E--5-------5-5-5-----5--------|-----------------------------|--1-------1-1-1--------------|--3-------3-3-3--------------|

   e  e  s s s s e  q    s s     e  e  s s s s e  q    s s     e  e  s s s s e  e  e  e      q    s s s s q    e  s s  
e--3-----5-3-1---3-------0-1--|--3---------------------0-1--|--3-----5-3-1---3--8--5------|-------1-0-------------0-1---|
B-----1-------------1---------|-----1--3-1-3---1------------|-----1-------------------6---|--3--------3-1-3-------------|
G--0---------0-0-0------------|--0-----------2----0---------|--0---------0-0-0------------|-------------2-0----0--------|
D-----------------------------|-----------------------------|-----------------------------|--------------------0--------|
A--3---------3-3-3------------|--3---------3-3-3------------|--3---------3-3-3------------|--3--------3-3-3----2--------|
E-----------------------------|-----------------------------|-----------------------------|-----------------------------|

   e  e  s s s s e  q    s s     e  e  s s s s e  q    s s     e  e  s s s s e  e  s s e     q    s s s s h  
e--3-----5-3-1---3-------0-1--|--3---------------------0-1--|--3-----5-3-1---3--8--5-3----|-------1p0-------------------|
B-----1-------------1---------|-----1--3-1-3---1------------|--0-----3-------1-----3---6--|--3----0---3-1-1-------------|
G--0---------0-0-0------------|--0-----------2----0---------|--5--5--3-------2-----3------|--2----0-------0-------------|
D-----------------------------|-----------------------------|--5-----3-------3-----3------|--3----0-------2-------------|
A--3---------3-3-3------------|--3---------3-3-3------------|----------------0------------|---------------3-------------|
E-----------------------------|-----------------------------|-----------------------------|--1----3---------------------|

   q.      s s q.      s s       
e-----------------------------| 
B-----------------------------|
G--0---------2-0---------2----| 
D----------3-----------3------| 
A--3-------3-3-3-------3-3----| 
E-----------------------------| Back to Intro after Coda

   Part 2 Ending 
   q.      s s h                 q.      s s h                 q.      s s h
e-----------------------------|-----------------------------|-----------------------------||
B-----------------------------|-----------------------------|-----------------------------||
G--0--------------------------|-----------------------------|-----------------------------||
D-----------------------------|--0--------------------------|--3--------------------------||
A--3-------3-3-3--------------|--3-------3-3-3--------------|--3-------3-3-3--------------||
E-----------------------------|-----------------------------|-----------------------------||


   Part 3
   q.      s s h                 q.      s s h                 w                             q    q    q    q
   ^                                                           ^
e-----------------------------|-----------------------------|-----------------------------|-----------------------------|
B-----------------------------|-----------------------------|-----------------------------|-------1----0----1-----------|
G--2--------------------------|-(2)-------------------------|--2--------------------------|-(2)-------------------------|
D--3--------------------------|-(3)-------------------------|--3--------------------------|-(3)-------------------------|
A--3-------3-3-3--------------|-(3)------3-3-3--------------|--3--------------------------|-(3)-------------------------|
E-----------------------------|-----------------------------|-----------------------------|-----------------------------|

   w                             q    q    q    q              w                             h        q    q
   ^                                                           ^
e-----------------------------|-----------------------------|-----------------------------|-----------------------------|
B-----------------------------|-------1----0----1-----------|-----------------------------|-----------0----1------------|
G--0--------------------------|-(0)-------------------------|--2--------------------------|-(2)-------------------------|
D--2--------------------------|-(2)-------------------------|--3--------------------------|-(3)-------------------------|
A--2--------------------------|-(2)-------------------------|--3--------------------------|-(3)-------------------------|
E-----------------------------|-----------------------------|-----------------------------|-----------------------------|

   w                             q    q    q    q              h        q.      s s          q    q    q    q
   ^                                                           ^
e-----------------------------|-----------------------------|-----------------------------|-----------------------------|
B--3--------------------------|-(3)---1----0----1-----------|-----------------------------|-------1----0----1-----------|
G--0--------------------------|-(0)-------------------------|--2--------0-------0-0-------|--0--------------------------|
D--2--------------------------|-(2)-------------------------|--3--------------------------|-(3)-------------------------|
A--2--------------------------|-(2)-------------------------|--3--------------------------|-(3)-------------------------|
E-----------------------------|-----------------------------|-----------------------------|-----------------------------|

   h        q.      s s          q    q    q    q              h        q.      s s          h        q    q
   ^                                                           ^
e-----------------------------|-----------------------------|-----------------------------|-----------------------------|
B-----------------------------|-------1----0----1-----------|-----------------------------|-----------0----1------------|
G--0--------0-------0-2-------|--0--------------------------|--2--------0-------0-0-------|--0--------------------------|
D--2--------------------------|-(2)-------------------------|--3--------------------------|-(3)-------------------------|
A--2--------------------------|-(2)-------------------------|--3--------------------------|-(3)-------------------------|
E-----------------------------|-----------------------------|-----------------------------|-----------------------------|

   h        q.      s s          q    q    q    q              h        q.      s s          q    q    q    q
   ^                                                           ^
e-----------3-------3-5-------|--3----8----7----8-----------|--5--------5-----------------|-------8----7----8-----------|
B--3--------------------------|-----------------------------|--5----------------5---------|--5--------------------------|
G--0--------------------------|-(0)-------------------------|--5------------------7-------|-(5)-------------------------|
D--2--------------------------|-(2)-------------------------|--7--------------------------|-(7)-------------------------|
A--2--------------------------|-(2)-------------------------|--8--------------------------|-(5)-------------------------|
E-----------------------------|-----------------------------|--5--------------------------|-(5)-------------------------|

   h        q.      s s          q    q    q    q              h        q.      s s          h        q    q
   ^                                                           ^
e-----------------------------|-------8----7----8-----------|--5--------5-----------------|-----------7----8------------|
B--8--------10----------------|-----------------------------|--5----------------5---------|--5--------------------------|
G--7----------------9-7-------|--9--------------------------|--5------------------7-------|-(5)-------------------------|
D--9--------------------------|-(9)-------------------------|--7--------------------------|-(7)-------------------------|
A--7--------------------------|-(7)-------------------------|--9--------------------------|-(5)-------------------------|
E--7--------------------------|-(7)-------------------------|--5--------------------------|-(5)-------------------------|

   q    q    q.      s  s        w                             w                             h+q.                 s s                       
   ^                             ^                             ^                             ^
e--8---------8----------------|--8--------------------------|--7--------------------------|--3--------------------0-1---||
B--8-----------------11-9-----|--8--------------------------|--8--------------------------|--3--------------------------||
G--8----10--------------------|--8--------------------------|--7--------------------------|--3--------------------------||
D--10-------------------------|--10-------------------------|--9--------------------------|--5--------------------------||
A--11-------------------------|--11-------------------------|--10-------------------------|--6--------------------------||
E--8--------------------------|--8--------------------------|-----------------------------|--3--------------------------|| Al Coda



Note Legend
-----------
w - whole
h - half
q - quarter
e - eighth
. - dotted

Tab Legend
-----------
() - continue holding note
h - hammer on
p - pull off
/ - slide up
\ - slide down
<> - natural harmonic
^ - brush up
        
Comments

No comments yet