Gametabs
Home
Tabs
Random

To Zanarkand

Average rating: 5.000

10 ratings

Composer:

Tabber:

Style:

Instrument:

Created: March 25, 2013 at 12:00 AM

            To Zanarkand
Final Fantasy X
Composed by Nobuo Uematsu
tabbed by musenji        

This arrangement is derived from Stamen47's beautiful arrangement/tab.  It is
a bare-bones reduction, with the occasional flourish.  It is much easier to
play, but I hope it still has the feel of Uematsu's original composition.

Here is a link to Stamen's full arrangement:

http://www.gametabs.net/playstation-2/final-fantasy-10/to-zanarkand/stam...

I have retained the original tab's measure layout so that they can be easily
compared, if desired.


Guitar
     E  E  E  E  E  E     H.              E  E  E  E  E  E     H.
E||--0-----------0--2--|--3------------|-----------------0--|--2------------|
B||-----------0--------|---------------|--3-----------3-----|---------------|
G||--------0-----------|---------------|-----------2--------|---------------|
D||-----2--------0-----|---------------|--0--0--4-----------|---------------|
A||--------------------|--3------------|--------------------|--2------------|
E||--0-----------------|---------------|--------------------|---------------|

  Q     Q     Q        Q    Q.     E     H.       E  E  E     H.
--------------------|-----------------|--------------------|---------------|
--0-----0-----0-----|--0-----------3--|--------------------|--0------------|
--------------------|-------2---------|--------------------|---------------|
--------------------|-----------------|--4-----------0--4--|---------------|
--3-----------------|--3--------------|--2--------4--------|---------------|
--------------------|-----------------|--------------------|---------------|

  Q     Q     Q        Q    Q.     E     H.       E  E  E
--0-----0-----0-----|--0-----------3--|--------------------|
--------------------|-------3---------|--1--------------1--|
--------------------|-----------------|-----------0--2-----|
--------------------|-----------------|--------------------|
--0-----2-----3-----|--0--------------|--------------------|
--------------------|-----------------|--1-----------------|

  E  E  E  E  E  E     Q.       E  E  E     Q     Q     Q
--1-----1--3--5--8--|--0-----------0--2--|--3-----2-----0-----|
-----1--------------|-----------0--------|--------------------|
--------------------|--------------------|--------------------|
--------------------|--------------------|--------------------|
--------------------|--------------------|--3-----------------|
--------------------|--0-----------------|--------------------|

  Q.       E  Q        H.                   Q.       E  E  E
--------------------|--------------------|--0-----------0--2--|
--3--------5--3-----|--0-----------------|-----------0--------|
--------------------|--------------------|--------------------|
--------------------|--------------------|--------------------|
--5-----------------|--------------------|--------------------|
--------------------|--3-----------------|--0-----------------|

  Q     Q     Q        Q.       E  Q        H.
--3-----2-----3-----|--5--------3--5-----|--7-----------------|
--------------------|--------------------|--------------------|
--------------------|--------------------|--0-----------------|
--------------------|--------------------|--------------------|
--3-----------------|--5-----------------|--------------------|
--------------------|--------------------|--------------------|

  Q.       E  E  E     Q     Q     Q        Q.       E  Q
--0-----------0--2--|--3-----2-----0-----|--------------------|
-----------0--------|--------------------|--3--------5--3-----|
--------------------|--------------------|--------------------|
--------------------|--------------------|--------------------|
--------------------|--3-----------------|--5-----------------|
--0-----------------|--------------------|--------------------|

  H           E  E     Q     Q     Q        Q    Q    Q
--------------------|--------------------|-----------------|
--0-----------------|--0-----0-----0-----|--0---------3----|
--------------0--2--|--------------------|-------2---------|
--------------------|--------------------|--0--------------|
--------------------|--3-----------------|-----------------|
--3-----------------|--------------------|-----------------|

  Q.       E  E  E     H.                   H.
--------------------|--------------------|--------------------|
--------------------|--------------------|--------------------|
--0--------0--------|--------------------|--------------------|
--------------4--0--|--2-----------------|--------------------|
--0-----------2-----|--3-----------------|--------------------|
--------------------|--------------------|--------------------|

  H           Q        Q     Q     Q        H           Q
--------------0-----|--0-----------------|--------------3-----|
--------------------|--------3-----1-----|--0-----------------|
--2-----------------|--------------------|--------------------|
--------------------|--------------------|--------------------|
--0-----------------|--------------------|--------------------|
--------------------|--1-----------------|--3-----------------|

  H.                   H           Q        H.              H           Q
--3-----------------|--------------2-----|--2------------|--------------0-----|
--------------------|--0-----------------|---------------|--------------------|
--------------------|--------------------|---------------|--2-----------------|
--------------------|--------------------|--4------------|--------------------|
--------------------|--2-----------------|---------------|--0-----------------|
--0-----------------|--------------------|---------------|--------------------|

  Q    H             H           Q        Q     Q     Q
--0---------------|--------------2-----|--2-----0-----------|
-------4----------|--------------------|--------------3-----|
------------------|--4-----------------|--------------------|
------------------|--------------------|--------------------|
--2---------------|--2-----------------|--------------------|
------------------|--------------------|--3-----------------|

  H           Q        H.                   Q    Q    Q       H        Q
--------------5-----|--5-----------------|--4--------------|-----------2----|
--2-----------------|--------------------|-------5---------|--0-------------|
--------------------|--------------------|------------6----|----------------|
--------------------|--------------------|-----------------|----------------|
--0-----------------|--------------------|--4--------------|----------------|
--------------------|--2-----------------|-----------------|--3-------------|

  Q.     E  Q       H.                   H.
-----------------|--------------------|---------------||
-----------------|--0-----------------|---------------||
--2---------2----|--------------------|---------------||
---------4-------|--1-----------------|---------------||
-----------------|--2-----------------|---------------||
--2---------0----|--------------------|---------------||

Duration Legend
---------------
W - whole
H - half
Q - quarter
E - 8th
S - 16th
T - 32nd
X - 64th
. - note dotted
|-n-|  - n-tuplets

        
Comments

@Aeromage (March 27, 2013 at 12:43 AM)

Excellent work, very clean and easy to play!


@nightsky (March 28, 2013 at 12:26 PM)

Thanks for such a nice and easy-to-play arrangement of this great song! Five stars.


@MisterM2402 (March 30, 2013 at 4:25 PM)

Great arrangement! Perfect piece for beginners, I'd say, a really solid introduction to fingerstyle guitar. Stamen47 always makes his tabs as awkward as possible; they sound great, but you need about 2 extra hands to play them :P Now, if I could just get something that's halfway between this and the original, I'd be happy ;)