Gametabs
Home
Tabs
Random

To Zanarkand

Average rating: 1.000

1 ratings

Composer:

Tabber:

Style:

Instrument:

Created: January 07, 2011 at 12:00 AM

                           To Zanarkand (Composed by Nubuo Uaematsu)


                  Pre Int.


G--0-----0-1-2-3----(--------------------0-2(
D------0------------(----------3-------3----(
A----2--------------(----------------2------(
E--0----------------(------------0-3--------(


G--7-7-7-7-5---10-3----(--------0-0-0-0---3--
D----------------------(---------------3----1 >>
A----------------------(---------------------
E----------------------(---------------------

                         Full- Verse
G--7-7-7-7-5---10-3----------0-0-0-0-----3----(
D----------------------------0-0-0-0-3-----1--(
A---------------------------------------------(
E---------------------------------------------(


G--0-----0-2-3-2-0-----0--------------0-----0-2-3-2-3-5-3-5-7(
D------0-----------3-----3-0--------------0------------------(
A------------------------------------------------------------(
E------------------------------------------------------------(

G--0-----0-2-3-2-0-----0---------------------------------------------(
D------0-----------3-----3-0--------------0-0-0-0-----3--------4-0-2-(
A-------------------------------------0-2-0-0-0-0-2------0---0-------(
E--------------------------------------------------------------------(

G-----0-0---------3-3-----(----7---14-14------5---12-12-11-(
D---------3-1-0-----------(--------------------------------(
A--2----------------------(--------------------------------(
E-------------------------(--------------------------------(


G------2-2-0-------5-5-----(---------4-0------2--------2-5-
D---0--------3-2-----------(--------------2-0---------4----
A--------------------------(--------------------2----------
E--------------------------(-------------------------------


Made by me, Chris Ross.

I decided to make a bass version of the song "To Zanarkand" which is usally played on guitar and piano. It was a little hard to work with on the bass but it sounds fine. Just make sure when your using and amp to have the gain all the way off, as low pitched as you can get it. Otherwise the range of notes wont satnd out as much. Just a tip.


        
Comments

@HighAnarch (January 08, 2011 at 1:32 AM)

Oh yeah guys.... the >> means the following note on the next line is played immediately after/standard pause.