Gametabs
Home
Tabs
Random

Silence Before the Storm

Average rating: 5.000

1 ratings

Composer:

Tabber:

Style:

Instrument:

Created: June 19, 2019 at 12:00 AM

            Silence Before the Storm 
Final Fantasy X
Composed by Nobuo Uematsu
Tabbed by BB
4/20/19

This is just the main melody, we have great rhythm tabs on here already. Standard tuning.

Part A

e|----11-13------------------------------|-----11-13------------------------------11~---|
B|-14-------11~---11-13-14---------------|--14-------11~---11-13-14---------------------|
G|-------------------------10-12-13--12~-|--------------------------10-12-13-12---------|
D|---------------------------------------|----------------------------------------------|
A|---------------------------------------|----------------------------------------------|
E|---------------------------------------|----------------------------------------------|

e|------------------------------------------|-----12------------------------------15~---|
B|----11-9-----------------------------13~--|--13----15-13---12-13------12-13-----------|
G|-12------12---10-12------10-12-10---------|------------------------14-------15--------|
D|----------------------13------------------|-------------------------------------------|
A|------------------------------------------|-------------------------------------------|
E|------------------------------------------|-------------------------------------------|

Part B

e|-----------18-17----16-15-----------------|-----------18-17----16-15-------------15~--|
B|-----------------18-------16----16-18-----|-----------------18-------16----16-18------|
G|--15-17-15-------------------18-------15~-|--15-17-15-------------------18------------|
D|------------------------------------------|-------------------------------------------|
A|------------------------------------------|-------------------------------------------|
E|------------------------------------------|-------------------------------------------|

e|-----------18-17----16-15-----------------|-------------------------------------------|
B|-----------------18-------16----16-18-----|-------------------------------------------|
G|--15-17-15-------------------18-------15~-|--15-17-15--18--17--15----------------15~--|
D|------------------------------------------|-------------------------18-15---18--------|
A|------------------------------------------|-------------------------------------------|
E|------------------------------------------|-------------------------------------------|

Part C

e|-------------------18-16--15-----|-----------------------------------------------|
B|--15-15-16--\18--------------18~-|--16-15-16--/18---15---------------------------|
G|----------------15---------------|---------------------15---17-15----------------|
D|---------------------------------|---------------------------------18---17-15~---|
A|---------------------------------|-----------------------------------------------|
E|---------------------------------|-----------------------------------------------|

e|------------------18-16--15----------15-16----------16-18-----------18-20--------|
B|--15-15-16-/18--------------18-18----------18-18----------19-19------------------|
G|---------------15----------------------------------------------------------------|
D|---------------------------------------------------------------------------------|
A|---------------------------------------------------------------------------------|
E|---------------------------------------------------------------------------------|

        
Comments

No comments yet