Gametabs
Home
Tabs
Random

The Oath

Average rating: 3.750

4 ratings

Composer:

Tabber:

Style:

Instrument:

Created: October 20, 2009 at 12:00 AM

            The Oath


                                     Arranged for Guitar by Dylan Jackson
Track 1
     Em       A/F#         G          B7           Am        B
     H        Q    Q       Q    E  E  Q    Q       Q    Q    Q    Q
E||---------------------|-----------------------|----------------------|
B||--0-------------3----|--0----1--0------------|-------0--------------|
G||-----------2---------|-------------2----0----|--2-------------------|
D||--2--------2----0----|--0--------------------|------------4----0----|
A||---------------------|-------------2---------|--3---------2---------|
E||--3--------2---------|--3----------2---------|--5---------2---------|


  C                                         Em
                                            tr
  W                   H        Q    Q       H           Q    Q
-------------------|---------------------|--0(2)--------2---------|
-------------------|-----------0----3----|-------------------3----|
-------------------|---------------------|--0-----------2---------|
--2----------------|--L------------------|------------------------|
--3----------------|--L------------------|--2-----------0---------|
--3----------------|--L------------------|--0-----------2---------|


  G         Fsus2add11+         Em7                    C
                                                       ^
  Q    Q    Q           Q       Q    Q    Q    Q       W
-----------------------------|-------0----0----2----|--0----------------|
--3----0----0----------------|--0-------------------|--1----------------|
--0---------0-----------2----|--0---------2---------|--0----------------|
--0---------------------3----|--0-------------------|--2----------------|
------------3----------------|------------4---------|--3----------------|
--3---------1----------------|--0---------0---------|--0----------------|


  W                   H        Q    Q       Q    E  E  Q    Q
--L----------------|---------------------|-----------------------|
-------------------|--0--------0---------|--0----1--0------------|
--L----------------|--0-------------2----|-------------2----0----|
-------------------|--0--------3---------|-------------2---------|
--L----------------|-----------3---------|--3--------------------|
--L----------------|--3--------3---------|--1----------1---------|


                                              C
  Q    Q    H           H        Q    Q       H        H
---------------------|---------------------|--0--------3--------|
-------0----0--------|--L-------------3----|-----------5--------|
---------------------|---------------------|--0--------5--------|
--2------------------|---------------------|--------------------|
--2------------------|--3------------------|--3-----------------|
--0------------------|--0------------------|--3-----------------|


                         Esus4                  E
  Q    Q    Q    Q       Q     Q    H           W
--5----3----2---------|--------0----0--------|--0----------------|
--7----5----3----3----|--0-----0----0--------|--0----------------|
-----------------4----|--2-----2----2--------|--1----------------|
--0-------------------|--2-----2----2--------|--2----------------|
--0-------------------|----------------------|--2----------------|
----------------------|--0-------------------|--0----------------|


  Bm                    D/G        Em   D       E7        A
  H        Q    Q       Q    E  E  Q    Q       Q    Q    Q    Q
--7--------7----5----|--5---------------5----|--0---------0---------|
--7--------5---------|--7----------8----7----|--3---------2---------|
--7--------6----0----|--7----------9----7----|--4---------2---------|
--4------------------|--5----7--5--9---------|--2----4--------------|
-----------7---------|-------------7----5----|------------4----0----|
---------------------|-----------------------|----------------------|


  Bsus4               B                   Em7      Edim
  W                   W                   H        H
--2----------------|--2----------------|--7--------9--------|
--5----------------|--4----------------|--8--------8--------|
--4----------------|--4----------------|--7-----------------|
--2----------------|--4----------------|-----------8--------|
--2----------------|--2----------------|--------------------|
-------------------|-------------------|--0--------0--------|


                                              A7
   Q    Q    Q    Q       W                   W
--10----5----2----4----|--5----------------|--5----------------|
-----------------------|--3----------------|--5----------------|
-----------------------|--4----------------|--6----------------|
---0---------0---------|-------------------|--5----------------|
---0-------------------|--5----------------|--0----------------|
-------------2---------|-------------------|-------------------|


            G
  Q    Q    Q    Q       Q    E  E  Q    Q       H        Q    Q
----------------------|-----------------------|---------------------|
--0--------------0----|-------0---------------|--0------------------|
------------0---------|--2-------2--0---------|---------------------|
----------------------|------------------3----|--2--------2---------|
------------2---------|--4----------0----3----|--2------------------|
--0----2----3----2----|--0----3--L------------|--0--------0----2----|


  C#m7                    Am7                   Bm7
  Q    Q     Q    Q       H        Q    Q       Q    Q    Q    Q
-----------------------|--0--------7----0----|--2----3----2---------|
-----------------------|--1--------3---------|--3----5----3----3----|
------------------7----|---------------------|--2----0----2----2----|
--5----7-----9----9----|---------------------|--4--------------4----|
-------9----10---------|--0------------------|----------------------|
--5--------------------|--3------------------|----------------------|


  H        H           H.           Q       Q    Q    Q    Q
--0--------7--------|--2-----------------|--0-------------------|
--0--------5--------|---------------3----|--1---------5---------|
--0--------4--------|--2------------2----|------------5---------|
--------------------|---------------4----|-------0----2----5----|
--3--------0--------|--0-----------------|--3-------------------|
--------------------|--2-----------------|----------------------|


  D                      E
  Q    Q    Q    Q       W
--5----3----2---------|--0------------------||
--7----5----3----3----|--0------------------||
--7--------------2----|--1----------------*-||
--0--------------0----|--2----------------*-||
----------------------|--2------------------||
----------------------|--0------------------||




Duration Legend
---------------
W - whole
H - half
Q - quarter
E - 8th
S - 16th
T - 32nd
X - 64th
. - note dotted
|-n-|  - n-tuplets



        
Comments

No comments yet