Gametabs
Home
Tabs
Random

The Oath

Average rating: 5.000

9 ratings

Composer:

Tabber:

Style:

Instrument:

Created: May 03, 2009 at 12:00 AM

                                Final Fantasy 8 - The Oath GUITAR TAB
                           Song by Nobuo Uematsu

              Arranged & tabbed by auriplane ([email protected])
                                On 5/3/2009

This is an arrangement.  I tried to be a little creative with this one, so
let me know what you think.  I made a MIDI of it so you can hear what it's
supposed to sound like.  Constructive criticism is appreciated!!

EDIT: Thanks to Kabuki for some advice :-D

Drop-D tuning.

    Part A

e |----------------|----------------|----------------|----------------|
B |0-----------3---|0---1-0---------|----0-----------|----------------|
G |0-------2-------|0-------2---0---|2---------------|----------------|
D |--------2-------|--------0-------|4-------4---0---|2---------------|
A |----------------|----------------|0-------2-------|3---------------|
D |2-------4-------|5-------0-------|--------0-------|5---------------|

e |----------------|0-------2---0---|----------------|----0---0---2---|
B |--------0---3---|0-------3-------|3-------0-------|0---------------|
G |--------0-------|0-------2-------|4---4---0---2---|2---------------|
D |----------------|----------------|----5-----------|0---------------|
A |--------2-------|----------------|----------------|----------------|
D |----------------|2-------0-------|5-------3-------|2---------------|

e |0---------------|----------------|
B |1---------------|----------------|
G |0---------------|----------------|
D |----------------|----------------|
A |----------------|----------------|
D |2---------------|----------------|

    Part B

e |----------------|----------------|----------------|----------------|
B |3-------0-------|0---1-0---------|----0---0-------|--------0---3---|
G |0-------0---2---|0---0---2---0---|2---------------|1---------------|
D |0-----------3---|0-------0-------|0---------------|2-------0-------|
A |----------------|----------------|----------------|----------------|
D |5---------------|3---------------|2---------------|2---------------|

e |0-------7-------|5---3---2-------|----0---0-------|----------------|
B |0---------------|------------3---|3---------------|----------------|
G |0---------------|0---------------|2---------------|1---------------|
D |----------------|0---------------|0---------------|0---------------|
A |3---------------|----------------|----------------|----------------|
D |----------------|0---------------|2---------------|2---------------|

e |7-------7-------|7---------------|----------------|----------------|
B |7---------------|7---------------|5-------2-------|5---------------|
G |7-------7-------|7---------------|4-------4-------|4---------------|
D |------------7---|------------0---|2---4---4-------|4---------------|
A |9-------7-------|9--10-9-7-------|--------4---0---|2---------------|
D |----------------|----------------|----------------|----------------|

e |----------------|
B |4---------------|
G |4---------------|
D |4---------------|
A |2---------------|
D |----------------|

    Part C

e |----------------|----------------|----------------|----------------|
B |0-------2-------|3---------------|----------------|----------------|
G |0---------------|2---2-----------|----------------|----------------|
D |0---------------|0-------4---6---|7---------------|7---------------|
A |2---------------|----------------|5---------------|4---------------|
D |----------------|0---------------|7---------------|7---------------|

e |----------------|----------------|----------------|----------------|
B |0-----------0---|----0-----------|----------------|--------0---3---|
G |0-------0-------|2-----2-0-------|0---------------|0---2---0---0---|
D |2-------0-------|2-------0---4---|0---2---2---4---|2-------0-------|
A |----------------|4-------3-------|2-------3-------|4---------------|
D |----------------|----------------|----------------|----------------|

e |0-------7-------|5---3---2-------|0-------7-------|2---------------|
B |----------------|3-------3---3---|----------------|0-----------3---|
G |5---------------|------------4---|5---------------|------------4---|
D |5---------------|----------------|0---------------|0---------------|
A |0---------------|2---------------|3---------------|----------------|
D |----------------|----------------|----------------|----------------|

e |0-------7-------|5---3---2-------|----2---2---0---|0---------------|
B |----------------|0-------3---3---|3---------------|0---------------|
G |5---------------|2-------2---2---|2---------------|1---------------|
D |----------------|0-----------0---|2---------------|2---------------|
A |3---------------|----------------|----------------|----------------|
D |----------------|----------------|----------------|----------------|


        
Comments

@999Pliskin999 (May 22, 2009 at 4:59 PM)

Exellent tab, I hadn't seen yet


@Vizard Brent (June 19, 2009 at 8:27 PM)

You've done a really good job with this one. It's one of my favourite pieces from Final Fantasy VIII so I really appreciate this submission. I'm now gonna check out your other tabs, keep up the good work.


@ItsAllMeaningless (June 19, 2009 at 8:41 PM)

Its got the depth to it, without sacrificing much playability and making it a bit of a challenge too.

Well done.