Gametabs
Home
Tabs
Random

The Oath

Average rating: No ratings

Composer:

Tabber:

Style:

Instrument:

Created: August 23, 2006 at 12:00 AM

            The Oath
Final Fantasy VIII
Composed by Nobuo Uematsu

8/23/06

e-------------------------------------------0---2-0-----------0-0-2-0
B--0-----3-0-1-0-------0----------------0-3---------3-0-0---0--------
G------2---------2-0-2------------------------------------2----------
D------------------------4-0-2---------------------------------------
A--------------------------------------------------------------------
E--------------------------------------------------------------------

e-------------------------------------0---7---5-3-2-----0-0
B--3---0---0-1-0-------0-0----------3---------------3-3----
G--------2-------2-0---------------------------------------
D--------------------2-------------------------------------
A----------------------------------------------------------
E----------------------------------------------------------

Then comes the flute

e--2---0-5-2-3-2-0-3-0-2---------------------------------
B------------------------2---0----------0---2---3--------
G--------------------------2----------------------2---1-2
D---------------------------------------------------4----
A--------------------------------------------------------
E--------------------------------------------------------

e----------------------------------------0---7---5-3-2---0-
B--0-----0---0-----------------------0-3---------------3---
G------0---2---2-0---0-----------0-2-----------------------
D------------------4---2-2-----4---------------------------
A----------------------------------------------------------
E----------------------------------------------------------

e--7---2-----0---7---5-3-2---2-0-0
B----------3---------------3------
G---------------------------------
D---------------------------------
A---------------------------------
E---------------------------------

        
Comments

@Diego (May 20, 2007 at 7:17 AM)

sounds really nice


@AllanMorgar (May 03, 2008 at 4:04 AM)

just changed the 3, it was misplaced :P

e--2---0-5-2-3-2-0---0-2--------------------------------- B------------------3-----2---0----------0---2---3-------- G--------------------------2----------------------2---1-2 D---------------------------------------------------4---- A-------------------------------------------------------- E--------------------------------------------------------