Gametabs
Home
Tabs
Random

The Landing

Average rating: 5.000

7 ratings

Composer:

Tabber:

Style:

Instrument:

Created: July 27, 2008 at 12:00 AM

            The Landing
Final Fantasy VIII
Composed by Nobuo Uematsu
Tabbed by Austin Clay ([email protected]) until :52 
then it's  ()

July the 26th of 2008.  Archard's portion done on 8/15/06





Intro/Background strings:
Repeat for a good portion of the song:
e---------------------------------------------------
B---------------------------------------------------
G------4-5-4---------2----------4-5-4---------------
D--2-5-------5----------4-5-2-5-------5----4-5-0----
A---------------------------------------------------
E---------------------------------------------------

  This enters at :17

e-----------------------------------------------------
B----------------------------12----10----12-----------
G--0-------0------------------------------------12---9
D------4-------2--------------------------------------
A-----------------2-----------------------------------
E-----------------------------------------------------

Horns at :36

B-----5--3--1-0--
 Then:

e--------------------------------------------------------
B--------------------------------------------------------
G-------------------------------7--9---------------------
D---------------9--10--7--9--10--------------------------
A---7--7--9--10------------------------------------------
E--------------------------------------------------------
 or:
B--5-5-7-8-12-13-10-12-13-15-17

This is the part of the song from 0:52 - 1:30

e-------------------------------------------------------
B-------------------------------------------------------
G------0-2-0-----0-2-4-5-4-2---4-0-2---0-----------2-0--
D--2-4-------4-----------------------4---2---4-0-4-----4
A-------------------------------------------------------
E-------------------------------------------------------

e-------------------------------------------------------
B-------------------------------------------------------
G------0-2-0-----0-2-4-5-4-2---4-0-2---0-------------0-2
D--2-4-------4-----------------------4---2---4-0-2-4----
A-------------------------------------------------------
E-------------------------------------------------------

Repeat

e-----0-1-3-1-3--5--3-1-0-1-------------------1--3-4-6-4-6--8--6-4-3-4---1
B--3------------------------1-3----------------------------------------4--
G-------------------------------------------------------------------------
D-------------------------------------------------------------------------
A-------------------------------------------------------------------------
E-------------------------------------------------------------------------

        
Comments

@AJMAYO (January 12, 2009 at 2:39 PM)

I am stranged that no 1 has coment. But all i have to say is: WOW OMFG THIS TAB ROCKS! rlly thx for tabing the first part. My props and 5 stars for this