Gametabs
Home
Tabs
Random

The Landing

Average rating: 4.000

2 ratings

Composer:

Tabber:

Style:

Instrument:

Created: July 28, 2009 at 12:00 AM

            ::::::::::::::


The Landing
Final Fantasy VIII
Composed by Nobuo Uematsu
Tabbed by Austin Clay ([email protected]) until 0:51
Then until 1:35 it's  ()
Then until the end by Johann Novak ([email protected])

Tabbed on 27/07/09
Link2126's portion done on 26/07/08.  Archard's portion done on 8/15/06



Intro

0:08
e---------------------------------------------------
B---------------------------------------------------
G----0-4-5-4-0-------2--------0-4-5-4-0------0------  x3
D--2--------------------4-5-2--------------4---0----
A---------------------------------------------------
E---------------------------------------------------

e----------------------------------------
B----------------------------------------
G----0-4-5-4-0-------2--------0-4-5-4-0--
D--2--------------------4-5-2------------
A----------------------------------------
E----------------------------------------

0:43
e--------------------------------------------------------
B--------------------------------------------------------
G-------------------------------7--9---------------------
D---------------7-9--10--7-9-10--------------------------
A------7--9--10------------------------------------------
E--------------------------------------------------------



0:51
e-------------------------------------------------------
B-------------------------------------------------------
G------0-2-0---0---2-4-5-4-2-4---0-2---0-----------2-0--
D--2-4-------4-----------------------4---2-4---0-4-----4
A-------------------------------------------------------
E-------------------------------------------------------

e-------------------------------------------------------
B-------------------------------------------------------
G------0-2-0---0---2-4-5-4-2-4---0-2---0-------------0-2
D--2-4-------4-----------------------4---2-4---0-2-4----
A-------------------------------------------------------
E-------------------------------------------------------

e-------------------------------------------------------
B-------------------------------------------------------
G--------5---------5-7-8-7-5-7-----5---------------5----
D--5-7-8---8-7-------------------8---7-8-5-7-----7---8-7
A----------------------------------------------8--------
E-------------------------------------------------------

e-------------------------------------------------------
B-------------------------------------------------------
G--------5---------5-7-8-7-5-7-----5-------------------5
D--5-7-8---8-7-------------------8---7-8-5-7-----5-7-8--
A----------------------------------------------8--------
E-------------------------------------------------------




1:19
e-----0-1-3-1-3--5--3-1-0-1-------------------1--3-4-6-4-6--8--6-4-3-4---1
B--3------------------------1-3----------------------------------------4--
G-------------------------------------------------------------------------
D-------------------------------------------------------------------------
A-------------------------------------------------------------------------
E-------------------------------------------------------------------------


1:35
e------------------------------------------------------------------------
B---7----5--7-8----5--7------8--7----10--8--7--8--5--7-------------------
G------------------------------------------------------------------------
D------------------------------------------------------------------------
A------------------------------------------------------------------------
E------------------------------------------------------------------------



1:53
e-------------------------------------3-------------------------------------
B--12--10-----8--7-----5--3--2--3--5----------------------------------------
G---------------------------------------------------------------------------
D---------------------------------------------------------------------------
A---------------------------------------------------------------------------
E---------------------------------------------------------------------------


1:58
e--------------------------------------
B--------------------------------------
G--------------------------------------  x4
D---0--2-3--0--2--3--0--2--3--2-----5--
A--------------------------------3-----
E--------------------------------------


2:11
e--10---8-------------------------------------------------------------------------
B---------11--10-8----------------------------------------------10-11-------------
G------------------10-9--7---------------------7-9-10--12-10-12-------------------
D--------------------------10---8-7-5---7-8-10------------------------------------
A---------------------------------------------------------------------------------
E---------------------------------------------------------------------------------



2:19
e----11--10-8-----------------------------------------------------------------
B--------------11-10-8-------------------------8----------8-10-11-10-8-10-----
G----------------------10-8-7--------7---9-10---10-9-10-----------------------
D-----------------------------10-8-10-----------------------------------------
A-----------------------------------------------------------------------------
E-----------------------------------------------------------------------------

e-------------------------------
B-----8----------------8--------
G--10---9-10-7-9-----9---10-9---
D-----------------10------------
A-------------------------------
E-------------------------------

2:28
e-----------------------------------------------------7-9-11-14-11------------
B----------7---------7-9-10-9-7-9-----7-----------7-9-------------------------
G---6--8-9---9-8-9------------------9---8-9-6-8-9-----------------------------
D-----------------------------------------------------------------------------
A-----------------------------------------------------------------------------
E-----------------------------------------------------------------------------

Then do it again except the intro

        
Comments

@ireland966 (February 21, 2010 at 7:48 PM)

Could someone make a guitar pro file of this, or power tab please.