Gametabs
Home
Tabs
Random

Succession of Witches

Average rating: 5.000

1 ratings

Composer:

Tabber:

Style:

Instrument:

Created: November 30, 2009 at 12:00 AM

            Succession of Witches - FFVIII

Tab: Klamath
Composed: Nobuo Uematsu 
11/28/2009



E|--12--11--19----12--11--19----12--11--20----17--
B|------------------------------------------------
G|------------------------------------------------
D|------------------------------------------------
A|------------------------------------------------
E|------------------------------------------------

E|--------7----------7----------8--5----
B|--5--4-------5--4-------5--4----------
G|--------------------------------------
D|--------------------------------------
A|--------------------------------------
E|--------------------------------------


E|--5--5----5--5----5--5----5--5--5--
B|-----------------------------------
G|-----------------------------------
D|-----------------------------------
A|-----------------------------------
E|-----------------------------------
					
E|--------0----------------1--3--5----7--5--12--11--
B|--0--------4--------------------------------------
G|-----2----------2--4--5---------------------------
D|--------------------------------------------------
A|--------------------------------------------------
E|--------------------------------------------------

E|--5--5----0----------5--5----1--0-------5--5-------------
B|-------------3--1------------------3---------------0--1--
G|------------------------------------------------2--------
D|---------------------------------------------------------
A|---------------------------------------------------------
E|---------------------------------------------------------


E|----------------------|
B|----------------------|
G|--2--2--2----1--1--1--|
D|----------------------|
A|----------------------|
E|----------------------|

This bar continues for a while under:


E|-------------------------------|--0----7----5--3--5--3--2--
B|-------------------------------|---------------------------
G|---------5------------------4--|---------------------------
D|--4----------------3-----------|---------------------------
A|-------------------------------|---------------------------
E|-------------------------------|---------------------------

E|--1--3--5-----3----1-----0------0-----5--------------2--0--------
B|-----------4----------4---------------------------4--------4-----
G|-----------------------------------------2--3--5--------------3--
D|-----------------------------------------------------------------
A|-----------------------------------------------------------------
E|-----------------------------------------------------------------


E|-------2--0--------------------------------------------------------0--
B|--0-------------3--1----0--1--3-----1------0-----0--------------3-----
G|---------------------------------2------------2--------2--4--5--------
D|---------------------------------------------------5------------------
A|----------------------------------------------------------------------
E|----------------------------------------------------------------------

E|-----------------0--2-----
B|--3--1--0--1--3--------3--
G|--------------------------
D|--------------------------
A|--------------------------
E|--------------------------

Repeat from the beginning
        
Comments

No comments yet