Gametabs
Home
Tabs
Random

Shuffle or Boogie

Average rating: 5.000

2 ratings

Composer:

Tabber:

Style:

Instrument:

Created: August 18, 2010 at 12:00 AM

                                        Final Fantasy 8 - Shuffle or Boogie BASS TAB
                                      Composed by Nobuo Uematsu
                            
                               Tabbed by auriplane ([email protected])


Five-string bass, standard tuning.  I made a four-string version an octave up, if you scroll down.


                                          FIVE-STRING VERSION

        Intro

G |------------------------|------------------------|------------------------|------------------------|
D |------------------------|------------------------|------------------------|------------------------|
A |------------------------|------------------------|------------------------|------------------------|
E |------------------------|------------------------|------------------------|----------------------0-|
B |------------------------|------------------------|------------------------|------------------1-3---|


G |------------------------|------------------------|------------------------|------------------------|
D |------------------------|------------------------|------------------------|------------------------|
A |------------------------|------------------------|------------------------|------------------------|
E |1---1-1---1-1---1-1---1-|1---1-1---1-1---1-1---1-|1---1-1---1-1---1-1---1-|1---1-1---1-1---1-----0-|
B |------------------------|------------------------|------------------------|------------------1-3---|


        Part A

G |------------------------|------------------------|------------------------|------------------------|
D |------------------------|------------------------|------------------------|------------------------|
A |------------------------|------------------------|------------------------|------------------------|
E |1---1-1---1-1---1-1---1-|1---1-1---1-1---1-1---1-|1---1-1---1-1---1-1---1-|1---1-1---1-1---1-----0-|
B |------------------------|------------------------|------------------------|------------------1-3---|


G |------------------------|------------------------|------------------------|------------------------|
D |------------------------|------------------------|------------------------|------------------------|
A |------------------------|------------------------|------------------------|----------------------0-|
E |1---1-1---1-1---1-1---1-|1---1-1---1-1---1-1---1-|1---1-1---1-1---1-1---1-|1---1-1---1-1---1-1-3---|
B |------------------------|------------------------|------------------------|------------------------|


        Part B

G |------------------------|------------------------|------------------------|------------------------|
D |------------------------|------------------------|------------------------|------------------------|
A |1---1-1---1-1---1-1---1-|1---1-1---1-1---1-1-----|------------------------|----------------------0-|
E |------------------------|--------------------4-3-|1---1-1---1-1---1-1---1-|1---1-1---1-1---1-1-3---|
B |------------------------|------------------------|------------------------|------------------------|


G |------------------------|------------------------|------------------------|------------------------|
D |------------------------|------------------------|------------------------|------------------------|
A |1---1-1---1-1---1-1---1-|1---1-1---1-1---1-1-----|------------------------|----------------------1-|
E |------------------------|--------------------4-3-|1---1-1---1-1---1-1---1-|1---1-1---1-1---1-1-4---|
B |------------------------|------------------------|------------------------|------------------------|


        Part C

G |------------------------|------------------------|------------------------|------------------------|
D |------------------------|------------------------|------------------------|------------------------|
A |3---3-3---3-3---3-3---3-|3---3-3---3-3---3-3---3-|1-----------------------|------------------------|
E |------------------------|------------------------|------------------------|------------------------|
B |------------------------|------------------------|------------------------|------------------------|


G |------------------------|------------------------|------------------------|------------------------|
D |------------------------|------------------------|------------------------|------------------------|
A |------------------------|------------------------|------------------------|------------------------|
E |1---1-1---1-1---1-1---1-|1---1-1---1-1---1-1---1-|1---1-1---1-1---1-1---1-|------------------0---0-|
B |------------------------|------------------------|------------------------|1---1-3---3-4---4-------|


        Now, repeat back to Part A.






                                           FOUR-STRING VERSION


This is an octave higher than the original, but you can play it without the low B string.

        Intro

G |------------------------|------------------------|------------------------|------------------------|
D |------------------------|------------------------|------------------------|------------------------|
A |------------------------|------------------------|------------------------|----------------------7-|
E |------------------------|------------------------|------------------------|------------------8-10--|


G |------------------------|------------------------|------------------------|------------------------|
D |------------------------|------------------------|------------------------|------------------------|
A |8---8-8---8-8---8-8---8-|8---8-8---8-8---8-8---8-|8---8-8---8-8---8-8---8-|8---8-8---8-8---8-----7-|
E |------------------------|------------------------|------------------------|------------------8-10--|


        Part A

G |------------------------|------------------------|------------------------|------------------------|
D |------------------------|------------------------|------------------------|------------------------|
A |8---8-8---8-8---8-8---8-|8---8-8---8-8---8-8---8-|8---8-8---8-8---8-8---8-|8---8-8---8-8---8-----7-|
E |------------------------|------------------------|------------------------|------------------8-10--|


G |------------------------|------------------------|------------------------|------------------------|
D |------------------------|------------------------|------------------------|----------------------7-|
A |8---8-8---8-8---8-8---8-|8---8-8---8-8---8-8---8-|8---8-8---8-8---8-8---8-|8---8-8---8-8---8-8-10--|
E |------------------------|------------------------|------------------------|------------------------|


        Part B

G |------------------------|------------------------|------------------------|------------------------|
D |8---8-8---8-8---8-8---8-|8---8-8---8-8---8-8-----|------------------------|----------------------7-|
A |------------------------|--------------------1110|8---8-8---8-8---8-8---8-|8---8-8---8-8---8-8-10--|
E |------------------------|------------------------|------------------------|------------------------|


G |------------------------|------------------------|------------------------|------------------------|
D |8---8-8---8-8---8-8---8-|8---8-8---8-8---8-8-----|------------------------|----------------------8-|
A |------------------------|--------------------1110|8---8-8---8-8---8-8---8-|8---8-8---8-8---8-8-11--|
E |------------------------|------------------------|------------------------|------------------------|


        Part C

G |------------------------|------------------------|------------------------|------------------------|
D |10--1010--1010--1010--10|10--1010--1010--1010--10|8-----------------------|------------------------|
A |------------------------|------------------------|------------------------|------------------------|
E |------------------------|------------------------|------------------------|------------------------|


G |------------------------|------------------------|------------------------|------------------------|
D |------------------------|------------------------|------------------------|------------------------|
A |8---8-8---8-8---8-8---8-|8---8-8---8-8---8-8---8-|8---8-8---8-8---8-8---8-|------5---5-6---6-7---7-|
E |------------------------|------------------------|------------------------|8---8-------------------|


        Now, repeat back to Part A.


        
Comments

@ForestMarth (August 19, 2010 at 8:50 PM)

Yes, that's it !!! I always loved card games' music in Final Fantasy even if after it's stuck in your head FOR A LONG TIME =) By the way, I think the bass line of the FF IX card game is more fun to play ^^ However... thanks for this awesome tab !! =D


@malicious_Muse (August 24, 2010 at 2:26 AM)

auriplane i just wanna say that ur work is outrageously awesome, you take the time to tab out songs so we can learn it the easy way. Cheers to one of the coolest Bassists out there!!!