Gametabs
Home
Tabs
Random

Premonition

Average rating: 1.000

2 ratings

Composer:

Tabber:

Style:

Instrument:

Created: June 11, 2010 at 12:00 AM

            Song: Premonition
Game: Final Fantasy VIII
Composer: Nobuo Uematsu
Tabbed by: Daugreano

This is just the beginning of the song, up to about 40 seconds in...

Electric Guitar:
 
   W        W        W        W        W        H     Q    Q      W        Q    Q    Q    Q
E|--------|--------|--------|--------|--------|-----------------|--------|---------------------|
B|--------|--------|--------|--------|--------|-----------------|--------|---------------------|
G|-7------|--------|--------|--------|--------|-----------------|--------|---------------------|
D|--------|-10-----|-8------|-7------|--------|-------7----8----|-10-----|------8----7---------|
A|--------|--------|--------|--------|-10-----|-----------------|--------|----------------10---|
E|--------|--------|--------|--------|--------|-----------------|--------|---------------------|

   W        W        W        W        W        H     H       W        W        W   
E|--------|--------|--------|--------|--------|-------------|--------|--------|-8------|
B|--------|--------|--------|--------|--------|-------------|--------|--------|--------|
G|-8------|-7------|--------|--------|--------|-------------|--------|--------|--------|
D|--------|--------|-10-----|-8------|-7------|-------------|--------|--------|--------|
A|--------|--------|--------|--------|--------|-------10----|-9------|--------|--------|
E|--------|--------|--------|--------|--------|-------------|--------|--------|--------|

   H     H       W        W        W        W        H     H       W        W
E|-10----11----|-19-----|-17-----|--------|-10-----|-12----13----|-21-----|-19-----|
B|-------------|--------|--------|--------|--------|-------------|--------|--------|
G|-------------|--------|--------|--------|--------|-------------|--------|--------|
D|-------------|--------|--------|--------|--------|-------------|--------|--------|
A|-------------|--------|--------|--------|--------|-------------|--------|--------|
E|-------------|--------|--------|--------|--------|-------------|--------|--------|


        
Comments

No comments yet