Gametabs
Home
Tabs
Random

My Mind

Average rating: 5.000

3 ratings

Composer:

Tabber:

Style:

Instrument:

Created: April 20, 2021 at 12:00 AM

            My Mind
OST: Final Fantasy VIII
Composer: Nobuo Uematsu

Tabbed by: kpsikill

Comments:
This theme is another variation of Eyes on Me, which are normal in 
Final Fantasies. I had to rearrange some of the chords to make it more easier
to play. As for the tempo, play a little slowly...with feelings...Arpeggiate
the chords to add smoothness.
   

Tuning: Standard (EADGBE)

 e|---3-2-5-|-------------|-------------0---|-2-5-5----2-3-5-2-|-----7-3-2-5-|
 B|---------|-0-------0-3-|-2h3p2---2-3---3-|------------------|-1-----4-----|
 G|---------|-----0-2-----|-----------------|------------------|-------0-----|
 D|---------|-0-----------|-2---------------|-0----------------|-2-----------|
 A|---------|-------------|-0---------------|-0----------------|-0-----0-----|
 E|---------|-3-----------|-----------------|------------------|-------------|

 e|-----3h5-7-5-5-3-|-0--------0-2-|-0--------3-----|------7-|-5------2-5-|
 B|-0---------------|-2----2-3-----|------0-3-0---3-|-3----7-|-7----3-----|
 G|-----------------|------2-------|----0-----0-----|-2----7-|-7----------|
 D|-0---------------|-2------------|-0--------0-----|-4----7-|-7----------|
 A|-----------------|--------------|----------------|-5------|------------|
 E|-3---------------|--------------|-3--------------|--------|------------|

 e|--9--7-7-|-----7-9-10-|-7--5-5--|-----2-3-5-|-5--3p2-3--|------3-5-7-|-7--5-5--|
 B|--0------|-0----------|---------|-----------|-5---------|-2----------|-7-------|
 G|--0------|-0----------|-0-------|-----------|-5---------|-0----------|-7-------|
 D|-12------|-0----------|-0-------|-4---------|-5---------|-2----------|-7-------|
 A|---------|------------|-0-------|-5---------|-----------|-0----------|---------|
 E|---------|------------|---------|-5---------|-----------|------------|---------|

 e|-------2-5-|--9--7-7-|-----3-7-9-10-|--9--------9-|-7----5-|-5-3-10-------0-|
 B|-----3-----|--0------|-0------------|-10--10------|-0------|-0------8---3---|
 G|-5---------|--0------|-0------------|-11----------|-8------|----------------|
 D|-0---------|-12------|-0------------|-11----------|---7--4-|-2--------------|
 A|-0---------|---------|--------------|--------12---|--------|-0--------------|
 E|-2---------|---------|--------------|-------------|--------|----------------|

 e|-2--2---0-----|-0-----|-------------|
 B|-2--2-----3-2-|-3-----|-3-----------|
 G|-2----0-------|-4-----|-2-----------|
 D|--------------|-5-----|-4-----------|
 A|-0------------|-------|-5-----------|
 E|--------------|-------|-------------|
        
Comments

@Donal Noye (January 10, 2022 at 3:37 PM)

Really nice man! had a lot of fun playin this, thank you