Gametabs
Home
Tabs
Random

Mods de Chocobo

Average rating: 5.000

1 ratings

Composer:

Tabber:

Style:

Instrument:

Created: August 20, 2010 at 12:00 AM

                                          Final Fantasy 8 - Mods de Chocobo BASS TAB
                                      Composed by Nobuo Uematsu
                            
                               Tabbed by auriplane ([email protected])


Five-string bass, standard tuning. 


        Intro

G |------------------------|------------------------|------------------------|------------------------|
D |------------------------|------------------------|------------------------|------------------------|
A |------------------------|------------------------|------------------------|------------------------|
E |------------------------|------------------------|------------------------|------------------1---2-|
B |------------------------|------------------------|------------------------|----------------3-------|


G |------------------------|------------------------|------------------------|------------------------|
D |------------------------|------------------------|------------------------|------------------------|
A |------------------------|------------------------|------------------------|------------------------|
E |3-----3-----1-----1-----|------------1-----1---2-|3-----3-----1-----1-----|----------1-------1---2-|
B |------------------------|1-----1---------3-------|------------------------|1---4-----------3-------|


G |------------------------|------------------------|------------------------|------------------------|
D |------------------------|------------------------|------------------------|------------------------|
A |------------------------|------------------------|------------------------|------------------------|
E |------3-----------3-----|------3-----------1---2-|------3-----------3-----|------3-----------3-----|
B |------------------------|----------------3-------|------------------------|------------------------|


        Part A

G |------------------------|------------------------|------------------------|------------------------|  \
D |------------------------|------------------------|------------------------|------------------------|   \ 
A |------------------------|1-----1-----3-----3-----|------------------------|------------------------|    |
E |3-----3-----1-----1-----|------------------------|3-----3-----1-----1-----|3-----3-----1-----1-----|    |
B |------------------------|------------------------|------------------------|------------------------|    |
                                                                                                           | x2
                                                                                                           |
G |------------------------|------------------------|------------------------|------------------------|    |
D |------------------------|------------------------|------------------------|------------------------|    |
A |------------------------|------------------------|------------------------|------------------------|    |
E |3-----3-----1-----1-----|------------1-----1---2-|3-----3-----1-----1-----|----------1-------1---2-|   /
B |------------------------|1-----1---------3-------|------------------------|1---4-----------3-------|  /


        Part B

G |------------------------|------------------------|------------------------|
D |------------------------|------------------------|------------------------|
A |3-----3-----0-----5-----|2-----2-----0---2-0-----|------------------------|
E |------------------------|------------------------|3-----3-----1---3-1-----|
B |------------------------|------------------------|------------------------|


G |------------------------|------------------------|------------------------|
D |------------------------|------------------------|------------------------|
A |3-----3-----0-----5-----|------------0-----0-----|1-----1-----2-----2-----|
E |------------------------|3-----3-----------------|------------------------|
B |------------------------|------------------------|------------------------|


G |------------------------|------------------------|------------------------|
D |------------------------|------------------------|------------------------|
A |3-----3-----5-----0-----|------------------1-----|------------------------|
E |------------------------|3---------1-------------|------------------------|
B |------------------------|------------------------|------------------------|


        Part C

G |------------------------|------------------------|------------------------|------------------------|
D |------------------------|------------------------|------------------------|------------------------|
A |------------------------|------------------------|------------------------|------------------------|
E |------------------------|------------------------|------------------------|------------1-----5-----|
B |------3-----------1-----|------3-----------1-----|------3-----------1-----|------3-----------------|


G |------------------------|------------------------|------------------------|------------------------|
D |------------------------|------------------------|------------------------|------------------------|
A |------------------------|------------------------|------------------------|------------------------|  x2
E |3-----3-----1-----1-----|------------1-----1---2-|3-----3-----1-----1-----|----------1-------1---2-|
B |------------------------|1-----1---------3-------|------------------------|1---4-----------3-------|


        Now repeat back to Part A.



        
Comments

@Link Strife07 (January 20, 2011 at 12:49 AM)

nice. really cool