Gametabs
Home
Tabs
Random

Julia

Average rating: 5.000

2 ratings

Composer:

Tabber:

Style:

Instrument:

Created: January 02, 2017 at 12:00 AM

            JULIA
Final Fantasy VIII
Dropped D Tuning
Capo 2



     H.           Q       E  E  E  E  Q    Q       E  E  E  Q.     Q       E  E  E  Q.     E  E   
E||--------------------|--------0-----2----5----|--2--------------------|--0--2------------------|
B||--------------------|--3-----2-----3----7----|--3--3-----2------3----|--0-----3---------0--3--|
G||---------------2----|-------------------6----|--------4--------------|--------2---------------|
D||--------------------|-----------0------------|-----4-----------------|-----0-----5------L-----|
A||--------------------|-----0------------------|--2--------------------|------------------------|
D||--------------------|--0---------------------|-----------------------|--5---------------------|


  E  E  E  E  Q    Q       E  E  E  E  Q    Q       E  E  E  E  H        E   
--0---------------------|--------0-----2----5----|--5--------------------7--|
--3--------2------------|--3-----2-----3---------|-----------------------8--|
--------2----------2----|------------------------|--6--------------------7--|
-----2------------------|-----------0------------|--------4--7--------------|
--0---------------------|-----0------------------|-----4--------------------|
------------------------|--0---------------------|--4-----------------------|


  E   E  E  Q    E  E  E     E  E  E  Q.     Q       Q.     E  Q    Q       E  E  E  Q    E  E  E   
--9--10--7-------5--7--5--|--------2--0------5----|------------9----7----|--7-----5----------2--5--|
--------------------------|--3-----3--2-----------|--3------7------------|-----------5----3--2-----|
------------0-------------|--4--------2-----------|---------7------------|--6--6-----6----4--2-----|
------0-------------------|-----2-----------------|--0-------------------|--4----------------------|
--------------------------|--0--------------------|--2-------------------|-------------------------|
--5-----------------------|-----------------------|----------------------|-------------------------|


  Q.     E  Q    Q       E  E  E  E  E  E  E  E     E  E  E  E  Q    E  E   
--7------7--5----3----|--3--0--2--------------2--|--2-----0--2--3----2--0--|
--7-------------------|--3-----3-----------------|--3----------------------|
---------0------------|--2-----2-----------------|-----0-------------------|
---------7------------|--------------0--2--0-----|-------------------------|
----------------------|-----------0-----------4--|--3--------3-------L-----|
--5-------------------|--0-----------------------|-------------------------|


                                             |--3--|                            
  E  E  E  Q.     E  E     E  E  E   E  Q    E  E  E     E  E  E  Q.     E  E   
--0---------------------|-----------10-------0--2--5--|--0--------5------7--9--|
--0-----3------------3--|--3---------8----------------|--3---------------------|
-----------4------4-----|--3-----0---7--L-------------|--2-----2--6------7--9--|
-----4------------------|--5--0-----------------------|-----2------------------|
--2---------------------|-----------------------------|--0--------0------L-----|
------------------------|-----------------------------|------------------------|


                                            |--3--|                                               
   E  E  E  E  H           E  E  E  E  Q    E  E  E     Q.     E  H           Q.     E  H         
--10--------5--L--------|--7--------2-------------5--|--9------7--7--------|--7------5--5--------|
------------------------|--7--------2----------7-----|--7------------------|--5------------------|
--11--------6--L--------|--7--------2-------7--------|--7------------------|--6------------------|
---------0--------------|--------0-------------------|--0------------------|---------------------|
------0-----------------|-----0----------------------|---------------------|--0------------------|
---0--------------------|--0-------------------------|---------------------|---------------------|


  E  E   H        E  S  S    E  E  E  E  E  E  E  E     E  E  E  Q    E  E  E   
--5--3--10--------3-------|--2--------2-----0--------|--0----------------------|
---------------------3h-5-|--3-----3-----------3--2--|--0-----0-------3--------|
--2--0---7----------------|-----2--------------------|-----------2-------0--2--|
--------------------------|--------------------------|-----2-------------------|
--0-----------------------|--0-----------0-----------|-------------------------|
--------------------------|--------------------------|--5--------4-------2-----|


  E  E  E  E  E  E  E  E      E   E   H.             
-----------------0--2--5--|--10--12--14------------||
--3-----------3-----------|------------------------||
-----------2--------------|------------------------||
--4-----0-----------------|------------------------||
-----0--------------------|------------------------||
--0-----------------------|------------------------||




Duration Legend
---------------
W - whole
H - half
Q - quarter
E - 8th
S - 16th
T - 32nd
X - 64th
. - note dotted
|-n-|  - n-tuplets



        
Comments

@thedstring (January 04, 2017 at 12:07 AM)

I don't know if it was meant to be this way or not, but it sounds a lot better to me when any duplicate notes are treated as sustains, like if there were ties between them.

Something like this maybe?

E|---------------------|---------0-------2----5----|-2-------------------------|-0---2------------------------|
B|---------------------|-3-------2-------3----7----|-3-----------2--------3----|-0-------3------------0---3---|
G|----------------2----|----------------------6----|---------4-----------------|---------2--------------------|
D|---------------------|-------------0-------------|-----4---------------------|-----0-------5----------------|
A|---------------------|-----0---------------------|-2-------------------------|------------------------------|
D|---------------------|-0-------------------------|---------------------------|-5----------------------------|

E|-0-------------------------|---------0-------2----5----|-5------------------------7---|
B|-3-----------2-------------|-3-------2-------3---------|--------------------------8---|
G|---------2------------2----|---------------------------|-6------------------------7---|
D|-----2---------------------|-------------0-------------|---------4---7----------------|
A|-0-------------------------|-----0---------------------|-----4------------------------|
D|---------------------------|-0-------------------------|-4----------------------------|

E|-9---10--7-----------5---7---5---|---------2---0--------5----|-----------9----7----|
B|---------------------------------|-3-------3---2-------------|-3-----7-------------|
G|-------------0-------------------|-4-----------2-------------|-------7-------------|
D|-----0---------------------------|-----2---------------------|-0-------------------|
A|---------------------------------|-0-------------------------|-2-------------------|
D|-5-------------------------------|---------------------------|---------------------|

E|-7-------5---------------2---5---|-7-----7---5---------|-3---0---2-------------------2---|
B|-------------5-------3---2-------|-7--------------8----|-3-------3-----------------------|
G|-----6-------6-------4---2-------|-------0-------------|-2-------2-----------------------|
D|-4-------------------------------|-------7-------------|-----------------0---2---0-------|
A|---------------------------------|---------------------|-------------0---------------4---|
D|---------------------------------|-5-------------------|-0-------------------------------|

E|-2-------0---2---3----2---0---|-0----------------------------|-------------10-------0---2---5---|
B|-3----------------------------|-0-------3----------------3---|-3-----------8--------------------|
G|-----0------------------------|-------------4--------4-------|-3-------0---7--------------------|
D|------------------------------|-----4------------------------|-5---0----------------------------|
A|-3-----------3----------------|-2----------------------------|----------------------------------|
D|------------------------------|------------------------------|----------------------------------|

E|-0-----------5--------7---9---|-10----------5---------|-7-----------2----------------5---|
B|-3----------------------------|-----------------------|-7-----------2------------7-------|
G|-2-------2---6--------7---9---|-11----------6---------|-7-----------2--------7-----------|
D|-----2------------------------|---------0-------------|---------0------------------------|
A|-0-----------0----------------|-----0-----------------|-----0----------------------------|
D|------------------------------|-0---------------------|-0--------------------------------|

E|-9-----7---7-----|-7-----5---------|-5---3---10----3---------|-2-----------2-------0-----------|
B|-7---------------|-5---------------|-------------------3--5--|-3-------3---------------3---2---|
G|-7---------------|-6---------------|-2---0---7---------------|-----2---------------------------|
D|-0---------------|-----------------|-------------------------|---------------------------------|
A|-----------------|-0---------------|-0-----------------------|-0---------------0---------------|
D|-----------------|-----------------|-------------------------|---------------------------------|

E|-0-------------------------------|---------------------0---2---5---|-10--12--14---------|
B|-0-------0-----------3-----------|-3---------------3---------------|--------------------|
G|-------------2-----------0---2---|-------------2-------------------|--------------------|
D|-----2---------------------------|-4-------0-----------------------|--------------------|
A|---------------------------------|-----0---------------------------|--------------------|
D|-5-----------4-----------2-------|-0-------------------------------|--------------------|

@chimatte (January 04, 2017 at 10:20 AM)

In fact if you go to see the execution of the piece you'll see that duplicate sounds are linked but in tablature is not, and I do not know why. If you are downloading you will see that the notes are linked.


@chimatte (January 06, 2017 at 7:20 AM)

Thank you Thedstring.What do you think of the other tabs and video i published.