Gametabs
Home
Tabs
Random

Force Your Way

Average rating: 5.000

4 ratings

Composer:

Tabber:

Style:

Instrument:

Created: June 01, 2014 at 12:00 AM

            Lead

E||-------|-------|-------|-------||--------|-------|-------|-------|-------|-------|-------|-------|-------|
B||-------|-------|-------|-------||--------|-------|-------|-------|-------|-------|-------|-------|-------|
G||-------|-------|-------|-------||*-------|-------|-------|-------|-------|-------|-------|-------|-------|
D||-------|-------|-------|-------||*-------|-------|-------|-------|-------|-------|-------|-------|-------|
A||-------|-------|-------|-------||--------|-------|-------|-------|-------|-------|-------|-------|-------|
E||-------|-------|-------|-------||--------|-------|-------|-------|-------|-------|-------|-------|-------|


                           E   E   E   E   E   E   E   E      E   E   E   E   E   E   E   E   
-------|-------|-------|--17--16--17----------17------17--|------17------17------17------17--|
-------|-------|-------|--------------17--18------17------|--15------------------------------|
-------|-------|-------|----------------------------------|----------17------16------14------|
-------|-------|-------|----------------------------------|----------------------------------|
-------|-------|-------|----------------------------------|----------------------------------|
-------|-------|-------|----------------------------------|----------------------------------|


   E   E   E   E   E   E   E   E      E   E   E   E   E   E   E   E      E   E   E   E   E   E   E   E   
----------------------------------|--------------------------12--13--|--12--11--12----------12------12--|
----------12----------12--13------|--12--13--15--12--13--15----------|--------------12--13------12------|
--13--14------13--14----------14--|----------------------------------|----------------------------------|
----------------------------------|----------------------------------|----------------------------------|
----------------------------------|----------------------------------|----------------------------------|
----------------------------------|----------------------------------|----------------------------------|


   E   E   E   E   E   E  E   E     E  E   E  E  E   E  E  E      E  E   E   E   E   E   E   E               
------12------12------12-----12--|----------------------------|-------------------------11--14--|-----|-----|
--10-----------------------------|----------------------8-----|------8--10--13--12--14----------|-----|-----|
----------12------11------9------|--8--9--11--8--9--11-----9--|--11-----------------------------|-----|-----|
---------------------------------|----------------------------|---------------------------------|-----|-----|
---------------------------------|----------------------------|---------------------------------|-----|-----|
---------------------------------|----------------------------|---------------------------------|-----|-----|


                                                               E   E   E   E   E   E   E   E   
-----|-----|-----|-----|-----|-----|-----|-----|-----|-----|--------------------------11------|
-----|-----|-----|-----|-----|-----|-----|-----|-----|-----|------11--12--11--12--14------14--|
-----|-----|-----|-----|-----|-----|-----|-----|-----|-----|--13------------------------------|
-----|-----|-----|-----|-----|-----|-----|-----|-----|-----|----------------------------------|
-----|-----|-----|-----|-----|-----|-----|-----|-----|-----|----------------------------------|
-----|-----|-----|-----|-----|-----|-----|-----|-----|-----|----------------------------------|


   E   E   E   E   E   E   E   E      E   E   E   E   E   E   E   E   
--11--12--14--12--14--16--19--18--|--17--16--17--19--17--19--21--19--|
----------------------------------|----------------------------------|
----------------------------------|----------------------------------|
----------------------------------|----------------------------------|
----------------------------------|----------------------------------|
----------------------------------|----------------------------------|


                         PH    PH    PH                                                                    
   E   E   E   E   E     E     E     E                                                                     
--21--23--21--23--24--------------<>18--|-----|-----|-----|-----|-----|-----|-----|-----|-----|-----|-----|
----------------------<>19--<>21--------|-----|-----|-----|-----|-----|-----|-----|-----|-----|-----|-----|
----------------------------------------|-----|-----|-----|-----|-----|-----|-----|-----|-----|-----|-----|
----------------------------------------|-----|-----|-----|-----|-----|-----|-----|-----|-----|-----|-----|
----------------------------------------|-----|-----|-----|-----|-----|-----|-----|-----|-----|-----|-----|
----------------------------------------|-----|-----|-----|-----|-----|-----|-----|-----|-----|-----|-----|


                                                                          H        S S S S S S S  S  
-----|-----|-----|-----|-----|-----|-----|-----|-----|-----|-----|-----|----------------------------|
-----|-----|-----|-----|-----|-----|-----|-----|-----|-----|-----|-----|---------------7-9-----9-11-|
-----|-----|-----|-----|-----|-----|-----|-----|-----|-----|-----|-----|-------------8-------8------|
-----|-----|-----|-----|-----|-----|-----|-----|-----|-----|-----|-----|-----------6-------8--------|
-----|-----|-----|-----|-----|-----|-----|-----|-----|-----|-----|-----|----------------------------|
-----|-----|-----|-----|-----|-----|-----|-----|-----|-----|-----|-----|----------------------------|


   W                    H         H           Q.      E   H           H         Q     Q     
--------------------|----------------------|--9------10--12--------|--L--------14----12----|
--12----------------|--10--------12--------|-----------------------|-----------------------|
--------------------|----------------------|-----------------------|-----------------------|
--------------------|----------------------|-----------------------|-----------------------|
--------------------|----------------------|-----------------------|-----------------------|
--------------------|----------------------|-----------------------|-----------------------|


   H         H           H         H            H         H            H         H                     
--10------------------|-----------10--------|----------------------|----------------------|-----------|
------------12--------|--L------------------|--14------------------|----------------------|-----------|
----------------------|---------------------|------------14--------|--11--------14--------|-----------|
----------------------|---------------------|----------------------|----------------------|-----------|
----------------------|---------------------|----------------------|----------------------|-----------|
----------------------|---------------------|----------------------|----------------------|-----------|


                                                                                                            3x
-----------|-----------|-----------|-----------|-----------|-----------|-----------|-----------|------------||
-----------|-----------|-----------|-----------|-----------|-----------|-----------|-----------|------------||
-----------|-----------|-----------|-----------|-----------|-----------|-----------|-----------|-----------*||
-----------|-----------|-----------|-----------|-----------|-----------|-----------|-----------|-----------*||
-----------|-----------|-----------|-----------|-----------|-----------|-----------|-----------|------------||
-----------|-----------|-----------|-----------|-----------|-----------|-----------|-----------|------------||

Bloops

      S  S  S  S  S  S  S  S  S  S  S  S  S  S  S  S     S  S  S  S  S  S  S  S  S  S  S  S  S  S  S  S  
E||--------------------------------------------------|--------------------------------------12-------12-|
B||--------------------------------------------------|--------------13-------13-15----13-15----13-15----|
G||--------------------------------------12-------12-|--14----12-14----12-14-------14-------------------|
D||--------------12-------12-14----12-14----12-14----|-----14-------------------------------------------|
A||--12-10-12-15----12-15-------15-------------------|--------------------------------------------------|
E||--------------------------------------------------|--------------------------------------------------|


   S  S  S  S  S  S  S  S  S  S  S  S  S  S  S  S     S  S  S  S  S  S  S  S  S  S  S  S  S  S  S  S  
--17-12-15-------12-------12----------------------|--------------------------------------------------|
-----------15-13----15-13----13-15-------13-------|--------------------------------------------------|
-----------------------------------14-12----14-12-|--14----12----------------------------------------|
--------------------------------------------------|-----14----12----14-12----14----12----------------|
--------------------------------------------------|--------------15-------15----15----12-10-15-12-10-|
--------------------------------------------------|--------------------------------------------------|


     S  S  S  S  S  S  S  S  S  S  S  S  S  S  S  S     S  S  S  S  S  S  S  S  S  S  S  S  S  S  S  S  
|---------------------------------------------------|--------------------------------------12-------12-|
|---------------------------------------------------|--------------13-------13-15----13-15----13-15----|
|*--------------------------------------12-------12-|--14----12-14----12-14-------14-------------------|
|*--------------12-------12-14----12-14----12-14----|-----14-------------------------------------------|
|---12-10-12-15----12-15-------15-------------------|--------------------------------------------------|
|---------------------------------------------------|--------------------------------------------------|


   S  S  S  S  S  S  S  S  S  S  S  S  S  S  S  S  
--17-12-15-------12-------12----------------------|
-----------15-13----15-13----13-15-------13-------|
-----------------------------------14-12----14-12-|
--------------------------------------------------|
--------------------------------------------------|
--------------------------------------------------|


   S  S  S  S  S  S  S  S  S  S  S  S  S  S  S  S  S  S  S  S  
--------------------------------------------------------------|
--------------------------------------------------------------|
--14----12----------------------------------------------------|
-----14----12----14-12----14----12----------------------------|
--------------15-------15----15----12-10-15-12-10-12-------10-|
-----------------------------------------------------12-10----|


   S  S  S  S  S  S  S  S  S  S  S  S  S  S  S  S     S  S  S  S  S  S  S  S  S  S  S  S  S  S  S  S  
--------------------------------------------------|--------------------------------------14-------14-|
--------------------------------------------------|--------------15-------15-17----15-17----15-17----|
--------------------------------------14-------14-|--16----14-16----14-16-------16-------------------|
--------------14-------14-16----14-16----14-16----|-----16-------------------------------------------|
--14-12-14-17----14-17-------17-------------------|--------------------------------------------------|
--------------------------------------------------|--------------------------------------------------|


   S  S  S  S  S  S  S  S  S  S  S  S  S  S  S  S     S  S  S  S  S  S  S  S  S  S  S  S  S  S  S  S  
--19----17-------14-------14----------------------|--------------------------------------------------|
-----19----17-15----17-15----15-17-------15-------|--------------------------------------------------|
-----------------------------------16-14----16-14-|--16----14----------------------------------------|
--------------------------------------------------|-----16----14----16-14----16----14----------------|
--------------------------------------------------|--------------17-------17----17----14----17-14----|
--------------------------------------------------|--------------------------------------17-------17-|


   S  S  S  S  S  S  S  S  S  S  S  S  S  S  S  S     S  S  S  S  S  S  S  S  S  S  S  S  S  S  S  S  
--------------------------------------------------|--------------------------------------14-------14-|
--------------------------------------------------|--------------15-------15-17----15-17----15-17----|
--------------------------------------14-------14-|--16----14-16----14-16-------16-------------------|
--------------14-------14-16----14-16----14-16----|-----16-------------------------------------------|
--14-12-14-17----14-17-------17-------------------|--------------------------------------------------|
--------------------------------------------------|--------------------------------------------------|


   S  S  S  S  S  S  S  S  S  S  S  S  S  S  S  S  
--19----17-------14-------14----------------------|
-----19----17-15----17-15----15-17-------15-------|
-----------------------------------16-14----16-14-|
--------------------------------------------------|
--------------------------------------------------|
--------------------------------------------------|


   S  S  S  S  S  S  S  S  S  S  S  S  S  S  S  S  S  S  S  S  S  S  S  S                                     
--------------------------------------------------------------------------|----|----|----|----|----|----|----|
--------------------------------------------------------------------------|----|----|----|----|----|----|----|
--16----14----------------------------------------------------------------|----|----|----|----|----|----|----|
-----16----14----16-14----16----14----------------------------------------|----|----|----|----|----|----|----|
--------------17-------17----17----14----17-14----14----12----------------|----|----|----|----|----|----|----|
--------------------------------------17-------17----14----12-10-14-12-10-|----|----|----|----|----|----|----|


        Q     Q     Q     Q        Q     Q     Q     Q        Q     Q     Q     Q     
----|--------------------------|--------------------------|--------------------------|
----|--------------------------|--------------------------|--------------------------|
----|--14----14----14----14----|--------------------------|--------------------------|
----|--------------------------|--18----18----18----18----|--18----18----18----18----|
----|--------------------------|--------------------------|--------------------------|
----|--------------------------|--------------------------|--------------------------|


   Q     Q     Q     Q                                                                                     
--------------------------|-------|-------|-------|-------|-------|-------|-------|-------|-------|-------|
--------------------------|-------|-------|-------|-------|-------|-------|-------|-------|-------|-------|
--------------------------|-------|-------|-------|-------|-------|-------|-------|-------|-------|-------|
--18----18----17----17----|-------|-------|-------|-------|-------|-------|-------|-------|-------|-------|
--------------------------|-------|-------|-------|-------|-------|-------|-------|-------|-------|-------|
--------------------------|-------|-------|-------|-------|-------|-------|-------|-------|-------|-------|


                   W                    W                    W                   W                 
-------|-------|--------------------|--------------------|--------------------|-------------------|
-------|-------|--12----------------|---L----------------|--10----------------|--L----------------|
-------|-------|--13----------------|---L----------------|--11----------------|--L----------------|
-------|-------|--13----------------|---L----------------|--11----------------|--L----------------|
-------|-------|--------------------|--------------------|--------------------|-------------------|
-------|-------|--------------------|--------------------|--------------------|-------------------|


                                  S S S S S S S  S S  S S  S S  S S  S  
-----------|-------------------|---------------------------------------|
-----------|-------------------|---------------------------------------|
-----------|-------------------|---------------------------------------|
-----------|-------------------|----------------------------------9-11-|
-----------|-------------------|-------------------9----9-11-9-11------|
-----------|-------------------|--4-2-4-7-4-7-9-11---11----------------|


   S  S  S  S  S  S  S  S  S  S  S  S  S  S  S  S                                          
-----------------------------------11----11-14-16-|-------------------|-------------------|
-----------------------12-14-12-14----14----------|-------------------|-------------------|
-----------11----11-13----------------------------|-------------------|-------------------|
--13-11-13----13----------------------------------|-------------------|-------------------|
--------------------------------------------------|-------------------|-------------------|
--------------------------------------------------|-------------------|-------------------|


-------------------|-------------------|-------------------|-------------------|
-------------------|-------------------|-------------------|-------------------|
-------------------|-------------------|-------------------|-------------------|
-------------------|-------------------|-------------------|-------------------|
-------------------|-------------------|-------------------|-------------------|
-------------------|-------------------|-------------------|-------------------|


  S S S S S S S  S S  S S  S S  S S  S     S  S  S  S  S  S  S  S  S  S  S  S  S  S  S  S                 
---------------------------------------|-----------------------------------11----11-14-16-|----|----|----|
---------------------------------------|-----------------------12-14-12-14----14----------|----|----|----|
---------------------------------------|-----------11----11-13----------------------------|----|----|----|
----------------------------------9-11-|--13-11-13----13----------------------------------|----|----|----|
-------------------9----9-11-9-11------|--------------------------------------------------|----|----|----|
--4-2-4-7-4-7-9-11---11----------------|--------------------------------------------------|----|----|----|


                                                                    Q     E   E   H         
----|----|----|----|----|----|----|----|----|----|----|----|----|--------------------------|
----|----|----|----|----|----|----|----|----|----|----|----|----|--15----13--12------------|
----|----|----|----|----|----|----|----|----|----|----|----|----|--14----14--14--14--------|
----|----|----|----|----|----|----|----|----|----|----|----|----|--------------------------|
----|----|----|----|----|----|----|----|----|----|----|----|----|--------------------------|
----|----|----|----|----|----|----|----|----|----|----|----|----|--------------------------|


  H         E   E   E   E      W                   W                    Q     E   E   H         
---------------------------|--------------------|-------------------|--------------------------|
-------------------12------|--------------------|-------------------|--15----13--12------------|
--L--------12--14------12--|--14----------------|--L----------------|--14----14--14--14--------|
---------------------------|--------------------|-------------------|--------------------------|
---------------------------|--------------------|-------------------|--------------------------|
---------------------------|--------------------|-------------------|--------------------------|


  H         E   E   E   E                       3x
---------------------------|----|----|----|-----||
-------------------12------|----|----|----|-----||
--L--------12--14------12--|----|----|----|----*||
---------------------------|----|----|----|----*||
---------------------------|----|----|----|-----||
---------------------------|----|----|----|-----||

Bloops2

      Q        Q        Q        Q           Q        Q        Q        Q     
E||--17----15g17----15g17----15g17----|--15g17----15g17----15g17----15g17----|
B||-----------------------------------|--------------------------------------|
G||-----------------------------------|--------------------------------------|
D||-----------------------------------|--------------------------------------|
A||-----------------------------------|--------------------------------------|
E||-----------------------------------|--------------------------------------|


      Q        Q        Q        Q           Q        Q        Q        Q     
--15g17----15g17----15g17----15g17----|--15g17----15g17----15g17----15g17----|
--------------------------------------|--------------------------------------|
--------------------------------------|--------------------------------------|
--------------------------------------|--------------------------------------|
--------------------------------------|--------------------------------------|
--------------------------------------|--------------------------------------|


        Q        Q        Q        Q           Q        Q        Q        Q     
|---15g17----15g17----15g17----15g17----|--15g17----15g17----15g17----15g17----|
|---------------------------------------|--------------------------------------|
|*--------------------------------------|--------------------------------------|
|*--------------------------------------|--------------------------------------|
|---------------------------------------|--------------------------------------|
|---------------------------------------|--------------------------------------|


      Q        Q        Q        Q           Q        Q        Q        Q        Q     
--15g17----15g17----15g17----15g17----|--15g17----15g17----15g17----15g17----15g17----|
--------------------------------------|-----------------------------------------------|
--------------------------------------|-----------------------------------------------|
--------------------------------------|-----------------------------------------------|
--------------------------------------|-----------------------------------------------|
--------------------------------------|-----------------------------------------------|


      Q        Q        Q        Q           Q        Q        Q        Q     
--17g19----17g19----17g19----17g19----|--17g19----17g19----17g19----17g19----|
--------------------------------------|--------------------------------------|
--------------------------------------|--------------------------------------|
--------------------------------------|--------------------------------------|
--------------------------------------|--------------------------------------|
--------------------------------------|--------------------------------------|


      Q        Q        Q        Q           Q        Q        Q        Q     
--17g19----17g19----17g19----17g19----|--17g19----17g19----17g19----17g19----|
--------------------------------------|--------------------------------------|
--------------------------------------|--------------------------------------|
--------------------------------------|--------------------------------------|
--------------------------------------|--------------------------------------|
--------------------------------------|--------------------------------------|


      Q        Q        Q        Q           Q        Q        Q        Q     
--17g19----17g19----17g19----17g19----|--17g19----17g19----17g19----17g19----|
--------------------------------------|--------------------------------------|
--------------------------------------|--------------------------------------|
--------------------------------------|--------------------------------------|
--------------------------------------|--------------------------------------|
--------------------------------------|--------------------------------------|


      Q        Q        Q        Q           Q        Q        Q        Q        Q        Q             
--17g19----17g19----17g19----17g19----|--17g19----17g19----17g19----17g19----17g19----17g19----|-------|
--------------------------------------|--------------------------------------------------------|-------|
--------------------------------------|--------------------------------------------------------|-------|
--------------------------------------|--------------------------------------------------------|-------|
--------------------------------------|--------------------------------------------------------|-------|
--------------------------------------|--------------------------------------------------------|-------|


                                                           Q     Q     Q     Q        Q     Q     Q     Q     
-------|-------|-------|-------|-------|-------|-------|--20----19----17----15----|--------------------------|
-------|-------|-------|-------|-------|-------|-------|--------------------------|--18----16----14----13----|
-------|-------|-------|-------|-------|-------|-------|--------------------------|--------------------------|
-------|-------|-------|-------|-------|-------|-------|--------------------------|--------------------------|
-------|-------|-------|-------|-------|-------|-------|--------------------------|--------------------------|
-------|-------|-------|-------|-------|-------|-------|--------------------------|--------------------------|


   Q     Q     Q     Q        Q     Q     Q     Q                                                             
--23----21----19----18----|--------18----19----21----|-------|-------|-------|-------|-------|-------|-------|
--------------------------|--21----------------------|-------|-------|-------|-------|-------|-------|-------|
--------------------------|--------------------------|-------|-------|-------|-------|-------|-------|-------|
--------------------------|--------------------------|-------|-------|-------|-------|-------|-------|-------|
--------------------------|--------------------------|-------|-------|-------|-------|-------|-------|-------|
--------------------------|--------------------------|-------|-------|-------|-------|-------|-------|-------|


                                           Q.      Q.      Q       E   Q.      H         
-------|-------|-------|-------|-------|--19------16------------|-----------------------|
-------|-------|-------|-------|-------|------------------16----|--L--------------------|
-------|-------|-------|-------|-------|------------------------|-----16----------------|
-------|-------|-------|-------|-------|------------------------|-------------18--------|
-------|-------|-------|-------|-------|------------------------|-----------------------|
-------|-------|-------|-------|-------|------------------------|-----------------------|


   Q.      Q.      Q       E   Q.      Q.     E                               H        H         
--17------14------------|------------------------|-------|-----|-----|-----|--------------------|
------------------14----|--L---------------------|-------|-----|-----|-----|--9--------9--------|
------------------------|-----14-----------------|-------|-----|-----|-----|--------------------|
------------------------|-------------16---------|-------|-----|-----|-----|--------------------|
------------------------|------------------------|-------|-----|-----|-----|--------------------|
------------------------|------------------------|-------|-----|-----|-----|--------------------|


   H        H            Q.      E  H           H         Q    Q        H        H         
---------------------|--------------9--------|--L--------11----9----|---------------------|
------------9--------|--11------12-----------|----------------------|--12--------9--------|
--11-----------------|-----------------------|----------------------|---------------------|
---------------------|-----------------------|----------------------|---------------------|
---------------------|-----------------------|----------------------|---------------------|
---------------------|-----------------------|----------------------|---------------------|


  H         H            H        H           W                   W                    H        H         
---------------------|---------------------|-------------------|-------------------|---------------------|
--L--------12--------|--11--------7--------|--L----------------|--9----------------|------------9--------|
---------------------|---------------------|-------------------|-------------------|--11-----------------|
---------------------|---------------------|-------------------|-------------------|---------------------|
---------------------|---------------------|-------------------|-------------------|---------------------|
---------------------|---------------------|-------------------|-------------------|---------------------|


   Q.      E  H           H         Q    Q        H        H           H         H         
--------------9--------|--L--------11----9----|---------------------|---------------------|
--11------12-----------|----------------------|--12--------9--------|--L------------------|
-----------------------|----------------------|---------------------|-----------11--------|
-----------------------|----------------------|---------------------|---------------------|
-----------------------|----------------------|---------------------|---------------------|
-----------------------|----------------------|---------------------|---------------------|


  W                   W                                                                             
-------------------|-------------------|-------------------|-------------------|-------------------|
--9----------------|--L----------------|-------------------|-------------------|-------------------|
-------------------|-------------------|-------------------|-------------------|-------------------|
-------------------|-------------------|-------------------|-------------------|-------------------|
-------------------|-------------------|-------------------|-------------------|-------------------|
-------------------|-------------------|-------------------|-------------------|-------------------|


-------------------|-------------------|-------------------|-------------------|-------------------|
-------------------|-------------------|-------------------|-------------------|-------------------|
-------------------|-------------------|-------------------|-------------------|-------------------|
-------------------|-------------------|-------------------|-------------------|-------------------|
-------------------|-------------------|-------------------|-------------------|-------------------|
-------------------|-------------------|-------------------|-------------------|-------------------|


   Q     E   E   H           H         E   E   E   E      W                   W                 
--22----20--19--17--------|--L--------15--17--19--15--|--17----------------|--L----------------|
--------------------------|---------------------------|--------------------|-------------------|
--------------------------|---------------------------|--------------------|-------------------|
--------------------------|---------------------------|--------------------|-------------------|
--------------------------|---------------------------|--------------------|-------------------|
--------------------------|---------------------------|--------------------|-------------------|


   Q     E   E   H           H         E   E   E   E                                           
--22----20--19--17--------|--L--------15--17--19--15--|-------------------|-------------------|
--------------------------|---------------------------|-------------------|-------------------|
--------------------------|---------------------------|-------------------|-------------------|
--------------------------|---------------------------|-------------------|-------------------|
--------------------------|---------------------------|-------------------|-------------------|
--------------------------|---------------------------|-------------------|-------------------|


                                        3x
-------------------|--------------------||
-------------------|--------------------||
-------------------|-------------------*||
-------------------|-------------------*||
-------------------|--------------------||
-------------------|--------------------||

Rhythm Organ

     E  E  E  E  E  E  E  E     E  E  E  E  E  E  E  E     E  E  E  E  E  E  E  E     E  Q.     E  E  E  E   
E||--------------------------|--------------------------|--------------------------|-----7------5-----------|
B||-----------7--------8-----|--------------------------|-----------7--------8-----|-----8------7-----7-----|
G||--9--------7--------9-----|-----7--------9-----------|--9--------7--------9-----|------------------7-----|
D||--7-----------------------|-----7--------7-----------|--7-----------------------|------------------------|
A||--------------------------|--------------------------|--------------------------|------------------------|
E||--------------------------|--------------------------|--------------------------|------------------------|


    E  E  E  E  E  E  E  E     E  E  E  E  E  E  E  E     E  E  E  E  E  E  E  E   
|---------------------------|--------------------------|--------------------------|
|------------7--------8-----|--------------------------|-----------7--------8-----|
|*--9--------7--------9-----|-----7--------9-----------|--9--------7--------9-----|
|*--7-----------------------|-----7--------7-----------|--7-----------------------|
|---------------------------|--------------------------|--------------------------|
|---------------------------|--------------------------|--------------------------|


  E  Q.     E  E  E  E  E  E      E  E  E  E  E  E   E  E     E  E  E  E   E  E  E  E   
-----7------5-----------------|----------------------------|---------------------------|
-----8------7-----7-----8-----|------------9--------10-----|---------------------------|
------------------7-----9-----|--11--------9--------11-----|-----9--------11-----------|
------------------------------|---9------------------------|-----9---------9-----------|
------------------------------|----------------------------|---------------------------|
------------------------------|----------------------------|---------------------------|


   E  E  E  E  E  E   E  E     E   Q.     E  E  E  E      E  E  E  E  E  E   E  E   
----------------------------|------9------7-----------|----------------------------|
------------9--------10-----|-----10------9-----9-----|------------9--------10-----|
--11--------9--------11-----|-------------------9-----|--11--------9--------11-----|
---9------------------------|-------------------------|---9------------------------|
----------------------------|-------------------------|----------------------------|
----------------------------|-------------------------|----------------------------|


  E  E  E  E   E  E  E  E      E  E  E  E  E  E   E  E     E   Q.     Q    Q    Q    Q     
---------------------------|----------------------------|------9------7----5---------5----|
---------------------------|------------9--------10-----|-----10------9----5----8----5----|
-----9--------11-----------|--11--------9--------11-----|-----------------------7---------|
-----9---------9-----------|---9------------------------|---------------------------------|
---------------------------|----------------------------|---------------------------------|
---------------------------|----------------------------|---------------------------------|


  E  E  E  E  E  E  E  E     E  E  E  E  E  E  E  E     H         H           H         H         
--------------------------|--------------------------|---------------------|---------------------|
--------------------------|--------------------------|---------------------|---------------------|
--------------------------|--------------------------|---------------------|--7--------10--------|
--7-----7--7-----7--7-----|--7-----7-----7-----7-----|--7--------10--------|--7---------7--------|
--5-----5--7-----7--5-----|--7-----5-----7-----5-----|--7---------7--------|---------------------|
--------------------------|--------------------------|---------------------|---------------------|


  E  E  E  E  E  E  E  E     E  E  E  E  E  E  E  E     H         H            H        H         
--------------------------|--------------------------|---------------------|---------------------|
--------------------------|--------------------------|---------------------|---------------------|
--------------------------|--------------------------|---------------------|---------------------|
--5-----5--7-----7--5-----|--7-----5-----7-----5-----|---------------------|---------------------|
--7-----7--7-----7--7-----|--7-----7-----7-----7-----|--7--------10--------|--12--------9--------|
--------------------------|--------------------------|--7---------7--------|--10--------7--------|


   |---3---|   |---3---|   |---3---|   |---3---|      |---3---|   |---3---|   |---3---|   |---3---|   
   E   E   E   E   E   E   E   E   E   E   E   E      E   E   E   E   E   E   E   E   E   E   E   E   
--20----------19----------17----------15------12--|--13----------11----------------------------------|
------17--18----------18------17--18------13------|--------------------------14----------13----------|
------------------17------------------------------|------12--13------10--13------12--13------10--13--|
--------------------------------------------------|--------------------------------------------------|
--------------------------------------------------|--------------------------------------------------|
--------------------------------------------------|--------------------------------------------------|


   |---3---|   |---3---|   |---3---|   |---3---|      |---3---|   |---3---|   |---3---|   |---3---|   
   E   E   E   E   E   E   E   E   E   E   E   E      E   E   E   E   E   E   E   E   E   E   E   E   
--11----------------------------------------------|--------------------------------------------------|
--------------14----------12----------11----------|--------------11------11--12------12--14------14--|
------13----------13----------13----------13------|--13------13------------------12----------12------|
----------13----------13----------13----------13--|------14----------14------------------------------|
--------------------------------------------------|--------------------------------------------------|
--------------------------------------------------|--------------------------------------------------|


  E  E  E  E  E  E  E  E     E  E  E  E  E  E  E  E     E  E  E  E  E  E  E  E     E  E  E  E  E  E  E  E   
--------------------------|--------------------------|--------------------------|--------------------------|
--7-----7--8-----8--------|-----8-----8--7-----------|--7-----7--7-----7--7-----|--7--7-----7--7-----7-----|
--7-----7--9-----9--9-----|--9--9-----9--7-----9-----|--7-----7--7-----7--7-----|--7--7-----7--7-----7-----|
--------------------9-----|--9-----------------9-----|--------------------------|--------------------------|
--------------------------|--------------------------|--------------------------|--------------------------|
--------------------------|--------------------------|--------------------------|--------------------------|


  E  E  E  E  E  E  E  E     E  E  E  E  E  E  E  E     E  E  E  E  E  E  E  E     E  E  E  E  E  E  E  E   
--5-----5--6-----6--------|-----6-----6--5-----------|--5-----5--5-----5--5-----|--5--5-----5--5-----5-----|
--7-----7--8-----8--8-----|--8--8-----8--7-----8-----|--7-----7--7-----7--7-----|--7--7-----7--7-----7-----|
--------------------9-----|--9-----------------9-----|--------------------------|--------------------------|
--------------------------|--------------------------|--------------------------|--------------------------|
--------------------------|--------------------------|--------------------------|--------------------------|
--------------------------|--------------------------|--------------------------|--------------------------|


  E  E  E  E  E  E  E  E     E  E   E  E   E  E   E   E      E  E   E   E   E   E   E   E   
--------------------------|------------------------------|---------------------------------|
--------------------------|-------------------9--12--11--|--10--9--10--12--10--12--14--12--|
-----------------6--8--6--|--8--9--11--9--11-------------|---------------------------------|
--6--8--9--8--9-----------|------------------------------|---------------------------------|
--------------------------|------------------------------|---------------------------------|
--------------------------|------------------------------|---------------------------------|


   E   E   E   E   E   E   E   E     W                   W                   W                 
------11------11--12--14--16--18--|-------------------|-------------------|-------------------|
--14------14----------------------|-------------------|-------------------|-------------------|
----------------------------------|--4----------------|--L----------------|--2----------------|
----------------------------------|--6----------------|--L----------------|--4----------------|
----------------------------------|-------------------|-------------------|-------------------|
----------------------------------|-------------------|-------------------|-------------------|


  W                                                                                                 
-------------------|-------------------|-------------------|-------------------|-------------------|
-------------------|-------------------|-------------------|-------------------|-------------------|
--L----------------|-------------------|-------------------|-------------------|-------------------|
--L----------------|-------------------|-------------------|-------------------|-------------------|
-------------------|-------------------|-------------------|-------------------|-------------------|
-------------------|-------------------|-------------------|-------------------|-------------------|


  H        H           H        H           Q.     E  H           H        Q    Q       H        H         
--------------------|--------------------|---------------------|---------------------|--------------------|
--------------------|--------------------|---------------------|---------------------|--------------------|
--4--------4--------|--3--------4--------|--3------4--6--------|--L--------8----6----|--4-----------------|
--6--------6--------|--4--------6--------|--4------6--6--------|--L--------6----6----|--6--------6--------|
--------------------|--------------------|---------------------|---------------------|-----------6--------|
--------------------|--------------------|---------------------|---------------------|--------------------|


  H        H           H        H           W                   W                   H        H         
--------------------|--------------------|-------------------|-------------------|--------------------|
--------------------|--------------------|-------------------|-------------------|--------------------|
-----------4--------|--3-----------------|-------------------|--4----------------|--3--------4--------|
--L--------6--------|--4--------4--------|--L----------------|--6----------------|--4--------6--------|
--L-----------------|-----------4--------|--L----------------|-------------------|--------------------|
--------------------|--------------------|-------------------|-------------------|--------------------|


  Q.     E  H           H        Q    Q       H        H           H        H           W                 
---------------------|---------------------|--------------------|--------------------|-------------------|
---------------------|---------------------|--------------------|--------------------|-------------------|
--3------4--6--------|--L--------8----6----|--9--------6--------|--L--------4--------|--5----------------|
--4------6--6--------|--L--------6----6----|--9--------6--------|--L--------4--------|--6----------------|
---------------------|---------------------|--------------------|--------------------|-------------------|
---------------------|---------------------|--------------------|--------------------|-------------------|


  W                   H        H           H        H            H         H           H         H         
-------------------|--------------------|--------------------|----------------------|---------------------|
-------------------|--------------------|--------------------|--12--------10--------|--9--------10--------|
--L----------------|--9--------7--------|--6--------7--------|---9---------9--------|--9---------9--------|
--L----------------|--9--------9--------|--7--------9--------|----------------------|---------------------|
-------------------|--------------------|--------------------|----------------------|---------------------|
-------------------|--------------------|--------------------|----------------------|---------------------|


   H        H           H        H            H        H           H        H                                 
---------------------|--------------------|---------------------|--------------------|-----------|-----------|
--10--------8--------|--7--------8--------|---------------------|--------------------|-----------|-----------|
---7--------7--------|--7--------7--------|--11--------9--------|--8--------9--------|-----------|-----------|
---------------------|--------------------|---9--------9--------|--7--------9--------|-----------|-----------|
---------------------|--------------------|---------------------|--------------------|-----------|-----------|
---------------------|--------------------|---------------------|--------------------|-----------|-----------|


  E  E  E  E  E  E  E  E     E  E  E  E  E  E  E  E                             E  E  E  E  E  E  E  E   
--------------------------|--------------------------|-----------|-----------|--------------------------|
-----------7--------8-----|--------------------------|-----------|-----------|-----------7--------8-----|
--9--------7--------9-----|-----7--------9-----------|-----------|-----------|--9--------7--------9-----|
--7-----------------------|-----7--------7-----------|-----------|-----------|--7-----------------------|
--------------------------|--------------------------|-----------|-----------|--------------------------|
--------------------------|--------------------------|-----------|-----------|--------------------------|


  E  E  E  E  E  E  E  E     E  E  E  E  E  E  E  E     E  Q.     E  E  E  E   3x
--------------------------|--------------------------|-----7------5------------||
--------------------------|-----------7--------8-----|-----8------7-----7------||
-----7--------9-----------|--9--------7--------9-----|------------------7-----*||
-----7--------7-----------|--7-----------------------|------------------------*||
--------------------------|--------------------------|-------------------------||
--------------------------|--------------------------|-------------------------||


Rhythm Guitar

D||-------|-------|-------|-------||--------|-------|-------|-------|-------|-------|-------|-------|-------|
A||-------|-------|-------|-------||--------|-------|-------|-------|-------|-------|-------|-------|-------|
F||-------|-------|-------|-------||*-------|-------|-------|-------|-------|-------|-------|-------|-------|
C||-------|-------|-------|-------||*-------|-------|-------|-------|-------|-------|-------|-------|-------|
G||-------|-------|-------|-------||--------|-------|-------|-------|-------|-------|-------|-------|-------|
D||-------|-------|-------|-------||--------|-------|-------|-------|-------|-------|-------|-------|-------|


-------|-------|-------|-------|-------|-------|-------|-------|-------|-------|-------|-------|-------|
-------|-------|-------|-------|-------|-------|-------|-------|-------|-------|-------|-------|-------|
-------|-------|-------|-------|-------|-------|-------|-------|-------|-------|-------|-------|-------|
-------|-------|-------|-------|-------|-------|-------|-------|-------|-------|-------|-------|-------|
-------|-------|-------|-------|-------|-------|-------|-------|-------|-------|-------|-------|-------|
-------|-------|-------|-------|-------|-------|-------|-------|-------|-------|-------|-------|-------|


                  \1/                                            PM PM PM PM PM PM  
                  H        Q    Q       W                   Q    E  E  E  E  E  E   
-------|-------|---------------------|-------------------|-------------------------|
-------|-------|---------------------|-------------------|-------------------------|
-------|-------|---------------------|-------------------|-------------------------|
-------|-------|---------------------|-------------------|-------------------------|
-------|-------|--4--------L----L----|--L----------------|--4----4--4--4--4--4--4--|
-------|-------|--4--------L----L----|--L----------------|--4----4--4--4--4--4--4--|


  PM PM PM PM PM PM PM PM    \1/                                            PM PM PM PM PM PM  
  E  E  E  E  E  E  E  E     H        Q    Q       W                   Q    E  E  E  E  E  E   
--------------------------|---------------------|-------------------|-------------------------|
--------------------------|---------------------|-------------------|-------------------------|
--------------------------|---------------------|-------------------|-------------------------|
--------------------------|--2--------L----L----|--L----------------|--2----2--2--2--2--2--2--|
--4--4--4--4--4--4--4--4--|--2--------L----L----|--L----------------|--2----2--2--2--2--2--2--|
--4--4--4--4--4--4--4--4--|---------------------|-------------------|-------------------------|


  PM PM PM PM PM PM PM PM                                                                      
  E  E  E  E  E  E  E  E     H        E  E  E  E     H        E  Q.        Q.     Q.     Q     
--------------------------|-----------------------|---------------------|---------------------|
--------------------------|-----------------------|---------------------|---------------------|
--------------------------|-----------------------|---------------------|---------------------|
--2--2--2--2--2--2--2--2--|--3--------L--------1--|---------------------|----------------1----|
--2--2--2--2--2--2--2--2--|--1--------L-----1-----|--------------1------|--2------4-----------|
--------------------------|--------------1--------|---------------------|---------------------|


  E  Q.     Q    Q                               Q    Q    Q    E  S S    W                 
----------------------|-------|-------|-------|------------------------|-------------------|
----------------------|-------|-------|-------|------------------------|-------------------|
-----------------1----|-------|-------|-------|------------------------|-------------------|
--L--3------4---------|-------|-------|-------|--------------------8-8-|--8----------------|
----------------------|-------|-------|-------|--------------------8-8-|--8----------------|
----------------------|-------|-------|-------|--------------------6-6-|--6----------------|


  W                   W                   W                   E  S S Q    E  S S Q     
-------------------|-------------------|-------------------|--------------------------|
-------------------