Gametabs
Home
Tabs
Random

The Nightmare's Beginning

Average rating: 5.000

8 ratings

Composer:

Tabber:

Style:

Instrument:

Created: August 18, 2006 at 12:00 AM

            The Nightmare's Beginning
Final Fantasy VII
Composed by Nobuo Uematsu

8/18/06

e--------1-----1-----3-----1-----1----
B----2-------2-----2-----2-----2-----2
G------2---2-----2-----2-----2-----2--
D--0----------------------------------
A-------------------------------------
E-------------------------------------

e--------1-----1-----3-----1-----1----
B----1-------1-----1-----1-----1-----1
G------2---2-----2-----2-----2-----2--
D--0----------------------------------
A-------------------------------------
E-------------------------------------

e--------1-----1-----3-----1-----1----
B----0-------0-----0-----0-----0-----0
G------2---2-----2-----2-----2-----2--
D--0----------------------------------
A-------------------------------------
E-------------------------------------

e--------3-----1-----0-----1-----3----
B-------------------------------------
G----3-2---2-3---2-3---2-3---2-3---2-3
D--0----------------------------------
A-------------------------------------
E------------------------------------- 

e--------1-----1-----3-----1-----1----
B----2-------2-----2-----2-----2-----2
G------2---2-----2-----2-----2-----2--
D--0----------------------------------
A-------------------------------------
E-------------------------------------

e--------1-----1-----3-----1-----1----
B----1-------1-----1-----1-----1-----1
G------2---2-----2-----2-----2-----2--
D--0----------------------------------
A-------------------------------------
E-------------------------------------

I'm not entirely sure about this chord. Sounds about right though.
e--------1-----1-----3-----1-----1--------0-----
B----0-------0-----0-----0-----0-----0----3-----
G------2---2-----2-----2-----2-----2------2-----
D--0--------------------------------------3-----
A-----------------------------------------0-----
E-----------------------------------------------

e-------------------------------------------------------------------------------
B-----------------------------------------------2------2------------------------
G------5-6-5---6-5---------4-6-4---6-4--------3---3------3----------4-6-4---6-4--
D--0-4-------4-----4---0-4-------4-----4---0-4-------4-----4---0-4-------4-----4
A-------------------------------------------------------------------------------
E------------------------------------------------------------------------------- x2

This is the best I could do for the last part =/

e--5---5---5---8---6---5---3---3---3---3---3---3---3---3---3-
B------------------------------------------------------------
G------------------------------------------------------------
D------------------------------------------------------------
A------------------------------------------------------------
E------------------------------------------------------------

e--6---5---3---1---1---1---1---1---1
B-----------------------------------
G-----------------------------------
D-----------------------------------
A-----------------------------------
E-----------------------------------

e--5---5---5---8---6---5---3---3---3---6---5---3-
B------------------------------------------------
G------------------------------------------------
D------------------------------------------------
A------------------------------------------------
E------------------------------------------------

e--1---1---1---1---3---4---5---5---5---5--------
B-----------------------------------------------
G-----------------------------------------------
D-----------------------------------------------
A-----------------------------------------------
E-----------------------------------------------

        
Comments

@Verdi (June 10, 2007 at 3:44 PM)

Very well done, i like to freak my friend out wiht this one now :P


@Jarrit (July 11, 2007 at 4:11 PM)

nice jobXD KEEP IT UP MAN! WE NEED MORE! MORE MORE MORE MORE MORE!!!!!!!!!!!!!!!!!!


@me (August 12, 2007 at 8:36 PM)

very good ^_^ i love it!!


@Anonymous (October 14, 2007 at 10:49 PM)

Not bad but it could be better at some parts...I have seen better for this.

http://www.classtab.org/#utab


@meloshe (September 12, 2008 at 6:09 PM)

you da man richard


@CrimsonGhost (October 10, 2008 at 1:08 AM)

dude i love this song


@Bank (February 10, 2009 at 7:10 AM)

Awesome TAB. This is like the perfect bragging rights song I need right now :P Playing piano songs on guitar is always sweet! Thanks.

But yeah, that chord you were unsure of is kind of wrong. I can't say much.. but I think the link that Anonymous provided has the right chord.

;)