Gametabs
Home
Tabs
Random

Sending A Dream Into The Universe

Average rating: No ratings

Tabber:

Instrument:

Created: August 14, 2010 at 12:00 AM

            Title: Sending A Dream Into The Universe
Game: Final Fantasy VII
Composer: Nobuo Uematsu
Tempo: 90
Tabber: melancholeric
Date: 2010.08.14


Whee!


Guitar: E A D G B E

E|-------------|-------------|-------------|-------------|-------------|-------6-----|
B|-------8-----|-------8-----|-------8-----|-------8-----|-------8-----|-6-----------|
G|-------------|-7-----------|-8-----------|-7-----------|-8-----------|-7-----------|
D|-10----------|-8-----------|-10----------|-8-----------|-8-----------|-8-----------|
A|-10----------|-8-----------|-11----------|-8-----------|-10----------|-------------|
E|-11----------|-------------|-------------|-------------|-------------|-------------|


E|-----------------|--------|-----------------|-----------------|-6---------------|
B|-9-----------6---|-8------|-------8---------|-8-----8----10---|-------8---------|
G|-------8---------|--------|------------10---|-8---------------|-7---------7-----|
D|-10----6---------|-9------|-10--------------|-8---------------|-8---------------|
A|-11----8---------|-10-----|-10--------------|-----------------|-----------------|
E|-----------------|--------|-11--------------|-----------------|-----------------|


E|--------|-----------------|-----------------|-8---------------|-----------------|
B|--------|-------10---8----|-10----10---12---|-------10--------|-------10---8----|
G|-7------|-7---------------|-10--------------|-9---------9-----|-9---------------|
D|--------|-7---------------|-10--------------|-10--------------|-----------------|
A|--------|-8---------------|-----------------|-----------------|-----------------|
E|--------|-----------------|-----------------|-----------------|-----------------|


E|-----------------10--|-11----10---13---|-11----8---------|--------|-10--------------|
B|-10----12--13--------|-9---------------|-8---------8-----|-8------|-8-----11--8-----|
G|-10------------------|-8---------------|-8---------------|--------|-7---------------|
D|-10------------------|-----------------|-----------------|--------|-----------------|
A|---------------------|-----------------|-----------------|--------|-----------------|
E|---------------------|-----------------|-----------------|--------|-----------------|


E|-----------------|--------|--------|-------------|-------------|-------------|-------------|
B|-8----------9----|-8------|-8------|-8-----8-----|-8-----8-----|-8-----8-----|-8-----8-----|
G|-------10--------|-7------|-7------|-9-----9-----|-9-----9-----|-8-----8-----|-8-----8-----|
D|-------10--------|-10-----|-9------|-10----10----|-10----10----|-10----10----|-10----10----|
A|-------11--------|--------|--------|-------------|-------------|-------------|-------------|
E|-----------------|--------|--------|-------------|-------------|-------------|-------------|


E|-------------|-------------|-------------|-------------|--------|
B|-11----11----|-11----11----|-10----10----|-10----10----|-8------|
G|-8-----8-----|-8-----8-----|-10----10----|-10----10----|-9------|
D|-8-----8-----|-8-----8-----|-10----10----|-10----10----|-10-----|
A|-------------|-------------|-------------|-------------|--------|
E|-------------|-------------|-------------|-------------|--------|





Bass: E A D G

G|--------|--------|--------|--------|--------|--------|--------|--------|-------------|
D|--------|--------|--------|--------|--------|--------|--------|--------|--------0----|
A|--------|--------|--------|--------|--------|--------|--------|--------|-3-----------|
E|--------|--------|--------|--------|--------|--------|--------|--------|-------------|


G|----------------|-------------|-0--------------0-------|-------------|----------------|
D|-1--------------|--------0----|-------0----0-----------|-0------2----|-3--------------|
A|--------1---0---|-------------|--------------------3---|-------------|--------3---2---|
E|----------------|-3-----------|------------------------|-------------|----------------|


G|-------------|----------------0-------|----------------|-------------|-------------|
D|--------2----|------------2-----------|--------3-------|-------------|-------------|
A|-0-----------|-0-----0----------------|----------------|--------1----|-3-----------|
E|-------------|--------------------3---|-1----------3---|-4-----------|--------3----|


G|----------------|----------------|----------------|-------------|-------------|--------|
D|----------------|----------------|--------3-------|--------0----|-3-----------|--------|
A|-3------1-------|----------------|------------3---|-------------|-------------|-3------|
E|------------4---|-3------3-------|-3--------------|-3-----------|-------3-----|--------|


G|----------------|--------|----------------|--------|-------------------0---|--------|
D|----------------|--------|------------0---|-1------|-1-----1---0---1-------|-3------|
A|-3--------------|-3------|-3------3-------|--------|-----------------------|--------|
E|--------3-------|--------|----------------|--------|-----------------------|--------|


G|--------|--------|
D|--------|--------|
A|--------|-3------|
E|-3------|--------|
        
Comments

No comments yet