Gametabs
Home
Tabs
Random

Rufus' Welcoming Ceremony

Average rating: No ratings

Composer:

Tabber:

Style:

Instrument:

Created: September 02, 2013 at 12:00 AM

            Final Fantasy VII
Rufus welcoming ceremony
Nobuo uematsu
tabbed by robertnk
1/9/2013


OPENING
E|-------------------4-------|-------------------9--10---|-10-10--9-10--10-10--9-10--|
B|-5---5-5--5-6-7-8-----5----|-9---9-9--9-11-12--------12|------------12-----------12|
G|---------------------------|---------------------------|---------------------------|
D|---------------------------|---------------------------|---------------------------|
A|---------------------------|---------------------------|---------------------------|
E|---------------------------|---------------------------|---------------------------|

E|--12--12-12-12--12-12-12-|
B|-------------------------|
G|-------------------------|
D|-------------------------|
A|-------------------------|
E|-------------------------|

THEME
E|-12--10----------------10--|----------------------12---|--14-10----------14---12---|
B|--------14--14--12--14-----|-14--12--10-----10-14------|---------14-12-------------|
G|---------------------------|---------------------------|---------------------------|
D|---------------------------|---------------------------|---------------------------|
A|---------------------------|---------------------------|---------------------------|
E|---------------------------|---------------------------|---------------------------|

E|--------12--14--10---------|-16--12------------17--16--|--16--14-16-17-16-14-------|
B|-10-14--------------14--12-|---------14----17----------|---------------------17----|
G|---------------------------|---------------------------|---------------------------|
D|---------------------------|---------------------------|---------------------------|
A|---------------------------|---------------------------|---------------------------|
E|---------------------------|---------------------------|---------------------------|

E|-12--10----------------10--|----------------------12---|--14-10----------14---12---|
B|--------14--14--12--14-----|-14--12--10-----10-14------|---------14-12-------------|
G|---------------------------|---------------------------|---------------------------|
D|---------------------------|---------------------------|---------------------------|
A|---------------------------|---------------------------|---------------------------|
E|---------------------------|---------------------------|---------------------------|

E|--------12--14--10---------|-16--12------------10----10|---------------------------|
B|-10-14--------------14--12-|--------14-10-12-14---12---|-14--10--14--12---10-------|
G|---------------------------|---------------------------|---------------------------|
D|---------------------------|---------------------------|---------------------------|
A|---------------------------|---------------------------|---------------------------|
E|---------------------------|---------------------------|---------------------------|

E|-5---5-5--5-4---4----------|-9---9-9--9-7------9--7----|-10-10--9-10--10-10--9-10--|
B|--------------7----6-------|---------------10--------9-|------------12-----------12|
G|----------------------6----|---------------------------|---------------------------|
D|---------------------------|---------------------------|---------------------------|
A|---------------------------|---------------------------|---------------------------|
E|---------------------------|---------------------------|---------------------------|

E|--12--12-12-12--12-12-12-|
B|-------------------------|
G|-------------------------|
D|-------------------------|
A|-------------------------|
E|-------------------------|
        
Comments

No comments yet