Gametabs
Home
Tabs
Random

Rufus Welcoming Ceremony

Average rating: 4.500

2 ratings

Composer:

Tabber:

Style:

Instrument:

Created: December 22, 2012 at 12:00 AM

            Title: Rufus Welcoming Ceremony
Artist: Nobuo Uematsu
Album: FF7 OST
Music: Nobuo Uematsu
Copyright: Squaresoft
Tabber: Hashel05
Tempo = 120


Melody


E |----|----------------------------------------------------|----------------|
B |----|----------------------------------------------------|--9-------------|
G |----|--9-----------------9--9--9-----10----11----12------|-----9----------|
D |----|----------------------------------------------------|----------------|
A |----|----------------------------------------------------|----------------|
E |----|----------------------------------------------------|----------------|


----------------------------------------------------|
--------------------------------------------14------|
--13----------------13-13-13----14----16------------|
----------------------------------------------------|
----------------------------------------------------|
----------------------------------------------------|


----------------------------------------------------|
--15----------------------------------------12------|
--------------16-------------------------13---------|
--------------------------------------14------------|
----------------------------------------------------|
----------------------------------------------------|


----------------------------------------------------|
--15----------15-------14-15------------------------|
--------------------------------16------------------|
----------------------------------------------------|
----------------------------------------------------|
----------------------------------------------------|


----------------------------------------------------|
--15----------15-------14-15------------------------|
--------------------------------16------------------|
----------------------------------------------------|
----------------------------------------------------|
----------------------------------------------------|


----------------------------------------------------|
--17----------------17-17-17----------------17-17---|
----------------------------------------------------|
----------------------------------------------------|
----------------------------------------------------|
----------------------------------------------------|


----------------------------------------------------|
--17----------------------------------17-------15---|
----------------------------------------------------|
----------------------------------------------------|
----------------------------------------------------|
----------------------------------------------------|


----------------------------------------------------|
--14----------14----------14----15----14------------|
-----------------------16-------------------16------|
----------------------------------------------------|
----------------------------------------------------|
----------------------------------------------------|


----------------------------|
--------------------14-17---|
--14L---------14-14---------|
----------------------------|
----------------------------|
----------------------------|


--14----------------------------------14------------|
--------------15-------14---------------------------|
--------------------------16------------------------|
----------------------------------------------------|
----------------------------------------------------|
----------------------------------------------------|


----------------------------|
--17L---------17----14-17---|
-----------------14---------|
----------------------------|
----------------------------|
----------------------------|


--14----------------------------------16------------|
--------------15-------14---------------------------|
--------------------------16------------------------|
----------------------------------------------------|
----------------------------------------------------|
----------------------------------------------------|


----------------------------|
--17----------14----14-17---|
----------------------------|
----------------------------|
----------------------------|
----------------------------|


--16----------16-------14-16----17----16----14------|
----------------------------------------------------|
----------------------------------------------------|
----------------------------------------------------|
----------------------------------------------------|
----------------------------------------------------|


----------------------------------------------------|
--17----------------------------------17-------15---|
----------------------------------------------------|
----------------------------------------------------|
----------------------------------------------------|
----------------------------------------------------|


----------------------------------------------------|
--14----------14----------14----15----14------------|
-----------------------16-------------------16------|
----------------------------------------------------|
----------------------------------------------------|
----------------------------------------------------|


----------------------------|
--------------------14-17---|
--14L---------14-14---------|
----------------------------|
----------------------------|
----------------------------|


--14----------------------------------14------------|
--------------15-------14---------------------------|
--------------------------16------------------------|
----------------------------------------------------|
----------------------------------------------------|
----------------------------------------------------|


----------------------------|
--17L---------17----14-17---|
-----------------14---------|
----------------------------|
----------------------------|
----------------------------|


--14----------------------------------16------------|
--------------15-------14---------------------------|
--------------------------16------------------------|
----------------------------------------------------|
----------------------------------------------------|
----------------------------------------------------|


--12------------------------|----------------------------|----------|-------|
--------------14-------14---|--15-------15-14-------14---|----------|-------|
-----------------14-16------|-----16----------14---------|--16-14---|-------|
----------------------------|----------------------------|----------|-------|
----------------------------|----------------------------|----------|-------|
----------------------------|----------------------------|----------|-------|


-------|----------------------------------------------------|----------------|
-------|----------------------------------------------------|----------------|
-------|--14----------14-------14-14----13----------13------|----------------|
-------|--------------------------------------16------------|--15------------|
-------|----------------------------------------------------|-----16---------|
-------|----------------------------------------------------|----------------|


----------------------------------------------------|
--14----------14-------14-14----------------14------|
--------------------------------16----14------------|
----------------------------------------------------|
----------------------------------------------------|
----------------------------------------------------|


----------------------------------------------------|
----------------------------------------------------|
--16----------13-------------------------13-16------|
--------------------------------------14------------|
----------------------------------------------------|
----------------------------------------------------|


----------------------------------------------------|
--15----------15-------14-15------------------------|
--------------------------------16------------------|
----------------------------------------------------|
----------------------------------------------------|
----------------------------------------------------|


----------------------------------------------------|
--15----------15-------14-15------------------------|
--------------------------------16------------------|
----------------------------------------------------|
----------------------------------------------------|
----------------------------------------------------|


----------------------------------------------------|-------|----|----||
--17----------------17-17-17----------------17-17---|--17---|----|----||
----------------------------------------------------|-------|----|----||
----------------------------------------------------|-------|----|----||
----------------------------------------------------|-------|----|----||
----------------------------------------------------|-------|----|----||


Bass



G |----|----|----|----|----|----|----|
D |----|----|----|----|----|----|----|
A |----|----|----|----|----|----|----|
E |----|----|----|----|----|----|----|


----------------------------------------------------|----------------|
----------------------------------------------------|----------------|
--7-----------------7--7----------------------------|--7-------------|
--------------------------5-----------------5--5----|----------------|


----------------------------------------------------|
--7-----------------------------------9-------------|
--------------7-----------7-------------------------|
----------------------------------------------------|


----------------------------------------------------|
--7-----------------------7-------------------------|
--------------7-----------------------7-------------|
----------------------------------------------------|


----------------------------------------------------|
--------------7-----------------------9-------------|
--5-----------------------7-------------------------|
----------------------------------------------------|


----------------------------------------------------|
--7-----------------------7-------------------------|
--------------7-----------------------7-------------|
----------------------------------------------------|


----------------------------------------------------|
--------------7-----------------------9-------------|
--5-----------------------7-------------------------|
----------------------------------------------------|


----------------------------------------------------|
--7-------------------------------------------------|
--------------7-----------9-----------7-------------|
----------------------------------------------------|


--6-----------------------9-------------------------|
--------------6-----------------------6-------------|
----------------------------------------------------|
----------------------------------------------------|


--6-----------------------9-------------------------|
--------------6-----------------------9-------------|
----------------------------------------------------|
----------------------------------------------------|


--------------9-----------9-------------------------|
--7-----------------------------------9-------------|
----------------------------------------------------|
----------------------------------------------------|


--------------9-----------------------9-------------|
--7-----------------------7-------------------------|
----------------------------------------------------|
----------------------------------------------------|


--7-----------------------9-------------------------|
--------------7-----------------------9-------------|
----------------------------------------------------|
----------------------------------------------------|


--------------9-----------------------9-------------|
--7-----------------------7-------------------------|
----------------------------------------------------|
----------------------------------------------------|


--7-----------------------9-------------------------|
--------------7-----------------------9-------------|
----------------------------------------------------|
----------------------------------------------------|


--------------9-----------11----------9-------------|
--7-------------------------------------------------|
----------------------------------------------------|
----------------------------------------------------|


--------------11----------------------9-------------|----------|----|----|----|
--7-----------------------7-------------------------|--9--7----|----|----|----|
----------------------------------------------------|----------|----|----|----|
----------------------------------------------------|----------|----|----|----|


--------------------------------------------------------------------------------
--------------------------------------------------------------------------------
--------------------------------------------4h-5h-4-----------2-----------------
--------------------------------------------------------------------------5-----


--------------------|----------------------------|----------------|
--------------------|----------------------------|--6--4----------|
--------------------|----------------------------|--------7--5----|
------4-------------|--5-------------------------|----------------|


----------------|----------------|
----------------|----------------|
--7--8--9-------|--10-8--7-------|
----------------|----------------|


----------------------------------------------------|----------------|----|----||
----------------------------------------------------|----------------|----|----||
--7-----------------7--7----------------------------|--7-------------|----|----||
--------------------------5-----------------5--5----|----------------|----|----||

        
Comments

@BigHeadClan (December 24, 2012 at 2:53 AM)

......

Less tabs more recording ><

.... Scratch that more tabs more recording!


@BigHeadClan (December 25, 2012 at 1:29 AM)

Wait you can get work done with your family hovering over you asking you to play a bunch of Christmas songs?

Most impressive!