Gametabs
Home
Tabs
Random

Rufus' Welcoming Ceremony

Average rating: 4.000

4 ratings

Composer:

Tabber:

Style:

Instrument:

Created: October 01, 2007 at 12:00 AM

                         % Segno
E|-5----3-||-2-------2-----0-|-2---3---2---0---|-----------------|---------2---5-
B|--------||-----------------|-----------------|-3---------------|-----3---------
G|--------||-----------------|-----------------|-----------------|---------------
D|--------||-----------------|-----------------|-----------------|---------------
A|--------||---------0-------|---------0-------|---------0-------|---------0-----
D|--------||-0---------------|-0---------------|-0---------------|-0-------------

E|-7-------3-----2-|-0-------7-------|-5---------------|---------2---5---
B|-----------------|-----------------|-----------------|-----3-----------
G|-----------------|-----------------|-----------------|-----------------
D|-----------------|-----------------|-----------------|-----------------
A|---------2-------|-4-------7-------|---------0-------|---------0-------
D|-5---------------|-----------------|-0---------------|-0---------------

                                                        1st repeat: _____
E|-7-------3-----2-|-0-------7-------|-5---------------|-------------10--
B|-----------------|-----------------|-----------------|-----------------
G|-----------------|-----------------|-----------------|-7---------------
D|-----------------|-----------------|---------4-------|-----------------
A|---------2-------|-4-------7-------|-----------------|---------9-------
D|-5---------------|-----------------|-4---------------|-9---------------

  ________________________________________________________________________
E|-9-------9-----7-|-9---10--9---7---|-5---------------|---------5-----3--||
B|-10--------------|-----------------|-2---------------|------------------||
G|-11--------------|-9-------9-------|-2---------------|-----------------*||
D|-11------11------|-7---------------|---------2-------|-----------------*||
A|-9---------------|-----------------|-0---------------|-0----------------||
D|-----------------|-----------------|-----------------|------------------||

2nd repeat: _____________________________________________________________
E|-----------------|-3---0-------3---|-2-----------2---|-0---------------
B|-3-------2---3---|-----------------|-----3-----------|-2---------------
G|-----4-----------|-----------------|-----------------|-2---------------
D|---------4-------|-----------------|-----------------|---------2-------
A|-2---------------|---------2-------|---------0-------|-0---------------
D|-----------------|-5---------------|-0---------------|-----------------

  Fine_____________    * Drum roll here (try tapping your guitar)
E|-----------------||
B|-3---------------||
G|-2---------------||
D|-4---------------||
A|-----------------||
D|-0---------------||

                                                                 |-3-|
E|-----------------|-----------------|-----------------|-----------------
B|-3-------3-----3-|-3---2---0---2---|-----------------|-------------2---
G|-4---------------|-----------------|-3---------------|-----------3-----
D|-4-------4-------|-----------------|---------4-------|---------4-------
A|-2---------------|-----------------|-----------------|-----------------
D|-----------------|-----------------|-4---------------|-4---------------

                                                                 |-3-|
E|-2-------2-----2-|-2---0-------2---|-0---------------|-------------0---
B|---------3-------|---------3-------|-2-------2-------|-----------2-----
G|---------2-------|---------2-------|-2-------2-------|---------2-------
D|-0---------------|-0---------------|-----------------|-----------------
A|-----------------|-----------------|-0---------------|-0---------------
D|-----------------|-----------------|-----------------|-----------------

E|-3-------3-----2-|-3---0-----------|-3-------3-----2-|-3---0-----------
B|---------2-------|-----------------|---------2-------|-----------------
G|---------2-------|-----------------|---------2-------|-----------------
D|---------2-------|---------2-------|---------2-------|---------2-------
A|-----------------|-0---------------|-2---------------|-3---------------
D|-2---------------|-----------------|-----------------|-----------------

                                                         D.S. al Fine
E|-5-----------5-5-|-5-----------5-5-|-5---------------|---------5-----3--||
B|-5-----------5-5-|-6-----------6-6-|-5---------------|------------------||
G|-6-----------6-6-|-7-----------7-7-|-6---------------|-----------------*||
D|-----------------|-----------------|-----------------|-----------------*||
A|-0-----------0-0-|-----------------|-0---------------|------------------||
D|-----------------|-0-----------0-0-|-----------------|------------------||

        
Comments

@Joe Nicks (May 30, 2007 at 3:00 PM)

From memory? There are plenty of references for this piece, so aside being able to tell people you did it from memory in the notes, why bother?


@Joe Nicks (May 30, 2007 at 3:40 PM)

Nice tab btw. Thought I may have sounded a bit rude up there but it was an honest question.


@archard (May 30, 2007 at 7:39 PM)

Sounds like it's in the wrong key to me but still nice tab


@Kabukibear (May 30, 2007 at 8:26 PM)

Keys are all relative, I tend to change the keys that most of my arrangements are in to make it more comfortable to perform. Plus, as you've noticed, I looooovveee drop D tuning, haha so it's easier if the music is in D if I wanna play in that tuning. I definitely don't rate down for transposing. ;)


@archard (May 30, 2007 at 9:49 PM)

Yeah I'm not saying it makes it any worse of a tab but it just sounds different from how it's "supposed" to be played.


@cgseth (June 01, 2007 at 3:07 PM)

Well, I was playing Final Fantasy VII recently and the piece started going through my head. So when I was sitting at my guitar and happened to be in drop D I made an ad-hoc arrangement in D major. I guess the only reason I mention that it was from memory is because I was not trying to make a note-accurate arrangement.

By the way, there are a few errors in the melody, because I wasn't at my guitar when tabbing this. [Oops, shouldn't have mentioned that! ;)].

And now that you talk about the original key, it is quite easy to play in A major as well.


@cgseth (November 02, 2007 at 3:20 AM)

I have just corrected some mistakes in the original tab.