Gametabs
Home
Tabs
Random

Reunion

Average rating: 4.500

2 ratings

Composer:

Tabber:

Style:

Instrument:

Created: October 01, 2007 at 12:00 AM

            Reunion
Final Fantasy VII
Composed by Nobuo Uematsu

8/18/06

e----3-1---3-1---3-1---3-1---2-0---2-0---2-0---2-0
B-------------------------------------------------
G--1-----1-----1-----1-----0-----0-----0-----0----
D-------------------------------------------------
A-------------------------------------------------
E------------------------------------------------- x2

e--------1---------------------------------1---0-1-----1---1
B------4------------3--------------------4---------------4--
G--1-3----------------2--------------1-3--------------------
D-----------------------3-2---------------------------------
A-----------------------------------------------------------
E-----------------------------------------------------------

e--------2----------1----------------------2---0-2-----2-0-2
B----0-3--------------1----------------0-3------------------
G--2--------------------1-0----------2----------------------
D-----------------------------------------------------------
A-----------------------------------------------------------
E-----------------------------------------------------------

e----2-0---2-0---2-0---2-0
B-------------------------
G--2-----2-----2-----2----
D-------------------------
A-------------------------
E-------------------------

e--3---2p1p0--------2-0-------------3---2p1p0-------------1
B----------------3-------0------------------------1--4-3---
G----------------------------------------------------------
D----------------------------------------------------------
A----------------------------------------------------------
E----------------------------------------------------------

e--5---4p3-1--------1-0-------------4---3p2p1---------3-1
B----------------3-------1------------------------4------
G--------------------------------------------------------
D--------------------------------------------------------
A--------------------------------------------------------
E--------------------------------------------------------

        
Comments

@Swankjellybean (September 10, 2007 at 10:42 PM)

I love this song....


@Hypoxia (August 17, 2008 at 4:43 PM)

Now this is one song I wasn't expecting anyone to tab. You did an awesome job dude, well done.


@hixen77 (May 05, 2009 at 10:31 PM)

Nicely Tabbed


@ragsdr (July 02, 2010 at 12:57 AM)

I love this song. I wish is was a little more popular.