Gametabs
Home
Tabs
Random

One Winged Angel

Average rating: 4.000

3 ratings

Composer:

Tabber:

Style:

Instrument:

Created: January 08, 2012 at 12:00 AM

            Song: One Winged Angel
Game: Final Fantasy VII
Composed by Nobuo Uematsu
Tablature by wayfaerer

Standard Tuning (EADGBe)

This is my metalized version of the song, lots of distortion; well, your comfortable melodeth tone.


|-----|    |-/11p10-/12p11-|    |-----|
|-----|    |---------------|    |-----|
|-----|    |---------------|    |-----|
|--2--| x8 |---------------| x4 |--2--| x20
|--1--|    |---------------|    |--1--|
|--0--|    |---------------|    |--0--|
PM .                            PM .


|-----------------------------------6p5p0-6p5p0----------------------6p5p0-6p5p0-----6p5p0---|
|--------------------------------------------------------------------------------------------|
|------------------------------------------------------3-------3-----------------------------|
|------------/5-2~--2-1-2-2/4--------------------0h1h2---0h1h2---2-2-------------2-2-------2-|
|----------2-----------------3v~~--------------------------------1-1-------------1-1-------1-|
|--(4h5h6)-------------------------------------------------------0-0-------------0-0-------0-|
PM  .      .                                                     . .             . .       .


|--------------------------------------------------9-----------10-----------12--------------|
|-----8-8-8-10--12-12-12-13--12-12-12-11--12-12-12----12-12-12-----12-12-12-----12-12-12-11-|
|-11----------------------------------------------------------------------------------------|
|-------------------------------------------------------------------------------------------|
|-------------------------------------------------------------------------------------------|
|-------------------------------------------------------------------------------------------|


|------------------------------------------|
|------------------------------------------|
|---------/11-9v~---^8h9-11-9-8------------|
|-------8----------^11----------11-10-8----|
|--9h10---------------------------------11-|
|------------------------------------------|
PM .    .


|-------5-4---9-8-----11-10----15-14-------18-17-------21~~--|  |-----|
|-3---------4-----8-9-------10-------14-15-------17-18-------|  |-----|
|---2-3------------------------------------------------------|  |-----|
|------------------------------------------------------------|  |--2--| x8
|------------------------------------------------------------|  |--1--|
|------------------------------------------------------------|  |--0--|
                                                                PM .
       
|------5------3------5------8------10------6------5------11~--|
|------6------4------5------8------10------7------6------12~--|
|------7------5------6------8------10------8------5------11~--|
|--0-0-------------------------0-0-------------------0-0------|
|---------3-3----5-5----5-5------------6-6----5-5-------------|
|-------------------------------------------------------------|
PM . .    . .    . .    . .    . .     . .    . .    . .

                                                 1st ending                  2nd ending     3rd ending
|--------------------------------|    |-------|-5-5-5-3-3-6-6-5--3-6--|    |--------------|------------|
|--------------------------------|    |-------|-3-3-3-3-3-3-3-3--3-3--|    |--------------|------------|
|--2----2-------3------3------3--|    |-2-2---|-2-2-2-0-0-3-3-2--0-3--|    |-2-2-2--------|-2-2-1-2v~~-|
|--3----3-------3------3------3--| x2 |-0-0-3-|-----------------------| x2 |-------5-3v~~-|------------|
|--5-55-5-5-5-5-4--5-5-4--5-5-4--|    |-----5-|-----------------------|    |--------------|------------|
|--------------------------------|    |-------|-----------------------|    |--------------|------------|
PM   ..   . . .    . .    . .                   . . . . . . . .  . .         . . . .        . . . 

                                                
|--1--0--2-------------------1--1--0-------------------|---------|
|--2--2--2-------------------2--2--2-------------------|---------|
|--3--3--3-------------------3--3--3-------------------|---------|
|----------(2---2---2---2--)---------(2---2---2---2--)-|-(12---)-|
|----------(0h1-0h1-1h3-1h3)---------(1h3-1h3-3h4-3h4)-|-(12-\\)-|
|----------(0---0---0---0--)---------(0---0---0---0--)-|-(12-\\)-|
PM          .   .   .   .             .   .   .   .

                                              
                                               1st ending                 2nd ending
|--------------------------------|    |-------|---8---7---5---3---1----|-10~~~~~~~~~~~~~~--|
|--------------------------------|    |-------|---6---6---6---5---3----|-----10~~~~~~~~~~--|
|--2----2-------3------3------3--|    |-2-2---|------------------------|---------10~~~~~~--|
|--3----3-------3------3------3--| x2 |-0-0-3-|-0---0---0---0---0------|-------------12~~--|
|--5-55-5-5-5-5-4--5-5-4--5-5-4--|    |-----5-|------------------------|-------------------|
|--------------------------------|    |-------|------------------------|-------------------|
PM   ..   . . .    . .    . .                   .   .   .   .   .


|-----------------6-----/8-7-6-7--/7-6-/10-9-8-7~~--|
|-------------8-----8~~-----------------------------|
|---------9-----9-----------------------------------|
|----9------9---------------------------------------| 
|-/7---10-------------------------------------------|
|---------------------------------------------------|


|--------------------------------------------------------------------------------------------------------------|
|--11----11----11p10----------11p10----------10----11-10-12----12----12p10----------12p10----------10----12----|
|-----12----12-------12-11-12-------12-11-12----12----------12----12-------12-11-12-------12-11-12----12----12-|
|--------------------------------------------------------------------------------------------------------------| 
|--------------------------------------------------------------------------------------------------------------|
|--------------------------------------------------------------------------------------------------------------|
PM  .  .  .  .  .     .  .  .  .     .  .  .  .  .  .  .  .  .  .  .  .     .  .  .  .     .  .  .  .  .  .  .


|----------------------------------------|
|----------------------------------------|
|----------------------------------------|
|--4/5----------------4/5-----2-----3~~--|
|----------5-4-3-2~~------------2---1~~--|
|------0-0-3-2-1-0~~------0-0-----3------|
PM     . .                . .


|--10p8-------8------------3-5-6-5-3---3-------------------------------|
|-------11-10---11----10~------------6---6-5-3-------------------------|
|------------------12----------------------------0-0---3-3---2-2---0-0-|
|----------------------------------------------------------------------|
|----------------------------------------------3-----6-----5-----3-----|
|----------------------------------------------------------------------|
PM                                             . . . . . . . . . . . . 


|-10-10-10-10-10-13~~--10-10-10-10-10-13~~--|
|--8--8--8--8--8-11~~---8--8--8--8--8-11~~--|
|-------------------------------------------|
|-------------------------------------------|
|-------------------------------------------|
|-------------------------------------------|


|--------------------------------|
|--------------------------------|
|--------------------------------|
|--0-1---1-0-1----0-3-0-1-0-1----|
|------4-------4--------------4--|
|--------------------------------|
PM . . . . . . .  . . . . . . .


|-/10-9----9-/13-12-10-9-|
|-------10---------------|
|------------------------|
|------------------------|
|------------------------|
|------------------------|


|-------|
|-3-3---|
|-2-2-2-|
|-0-0-3-|
|-----5-|
|-------|

SE-PHI-ROTH!



NOTE: it is entirely possible to play this on 2 guitars with what is
tabbed right here, just listen to the song and you can figure it out.
happy game-riffin'!!

PS Refer to song for timing and order of riffs played.


KEY

/  - Slide Up
\  - Slide Down
// - Carried Slide Up
\\ - Carried Slide Down
h  - Hammer-On
p  - Pull-Off
^  - Sweep/Rake
PM - Palm Mute
~~ - Tied Note

() - Notes in parentheses are optional

        
Comments

@wayfaerer (January 12, 2012 at 5:50 AM)

if the 5th measure thingy feels uncomfortable, that fret-walk section, try this instead:

Fret Walk Variation

edit: that link aint workin, so anyone who gives a damn is shit outta luck.


@wayfaerer (January 13, 2012 at 6:00 AM)

jesus christ, ya really coulda left a comment for a 3 star rating.

if it was 5 stars, fine and dandy. the necessity of saying "awesome tab man blahblahblah" is a little dumb i guess, but offering feedback is somewhat considerate and not uncalled for if you feel something si wrong or missing. how would i know to fix it or improve my tab?

ugh


@wayfaerer (January 14, 2012 at 12:39 AM)

agh.

i didnt WANT to grump anyone into changing their opinion, i just wanted whoever it was to speak said opinion.

ah well, dont matter that much i guess, but itd have been nice to attain some feedback.


@megaman04 (March 04, 2012 at 3:42 AM)

This would be so great!

A friend of mine and I really want to do metal covers to all our favorite game BGMs. This definitely in the Top 3 we gotta do.

Idk, i just feel really comfortable with a GP5 file! That way I can here it while I learn it also!

ALL MY WANT ARE IN YOUR HANDZ!

Don't ask me to even try xD I can't function sharps or flats or 16th/32nd/64th notes Sweet jesus!

I wish all of guitartabs.net had .GP5 available for download!