Gametabs
Home
Tabs
Random

One Winged Angel

Average rating: 4.800

5 ratings

Composer:

Tabber:

Style:

Instrument:

Created: May 23, 2015 at 12:00 AM

            Song: One Winged Angel
Game: Final Fantasy VII
Composed by Nobuo Uematsu
Tabbed By GALATAYA1993 (Based partially on wayfaerer's version)



Orchesteral Intro
|--------------------11h12--13p12p11--12p11--14p12--11h12--13p12p11--12p11--14p12------------------|
|--------------------------------------------------------------------------------------------------|
|--------------------------------------------------------------------------------------------------|
|--2-2-2-2-2-2-2-2-----------------------------------------------------------------2-2-2-2-2-2-2-2-|
|--1-1-1-1-1-1-1-1-----------------------------------------------------------------1-1-1-1-1-1-1-1-|
|--0-0-0-0-0-0-0-0-----------------------------------------------------------------0-0-0-0-0-0-0-0-|
PM . . . . . . . .                                                              PM . . . . . . . .

|-------------------------------------------------------------------------|
|-------------------------------------------------------------------------|
|-16-17-16-15-16-15-14-15-14----------16-17-16-15-16-15-14-15-14----------|
|----------------------------17-19-17----------------------------17-19-17-|
|-------------------------------------------------------------------------|
|-------------------------------------------------------------------------|

|-------------------------------------------------------------------------|
|-------------------------------------------------------------------------|
|-16-17-16-15-16-15-14-15-14----------------------------------------------|
|----------------------------17-19-17-16-17-16-14-16-14-13-14-13----------|
|----------------------------------------------------------------14-15-14-|
|-------------------------------------------------------------------------|

Riff 1
|-------------3-0~--0---0-2---------0-----0--------------------------0-----0---------0-------|
|---------------------4------1v~~------------------------------------------------------------|
|---------3---------------------------3p2---3p2--------3-------3-------3p2---3p2-------3p2---|
|---0h1h2----------------------------------------0h1h2---0h1h2---2-2-------------2-2-------2-|
|----------------------------------------------------------------1-1-------------1-1-------1-|
|----------------------------------------------------------------0-0-------------0-0-------0-|
PM                                                               . .             . .       .

|--------------------------------------------------9-----------10-----------12------------------------|
|-----8-8-8-10--12-12-12-13--12-12-12-11--12-12-12----12-12-12-----12-12-12-----12-12-12-11--12-12-12-|
|-11--------------------------------------------------------------------------------------------------|
|-----------------------------------------------------------------------------------------------------|
|-----------------------------------------------------------------------------------------------------|
|-----------------------------------------------------------------------------------------------------|

RIFF 2
|------------------------------------------|
|------------------------------------------|
|---------11-9v------8h9-11-9-8------------|
|-------8----------11-----------11-10-8----|
|--9h10---------------------------------11-|
|------------------------------------------|

|---------------------------------------15-14-------18-17-------21~~~~-|
|------------------14-13-------16-15----------14-15-------17-18--------|
|---------14-13----------12-13-------14--------------------------------|
|-12------------13-----------------------------------------------------|
|----12-13-------------------------------------------------------------|
|----------------------------------------------------------------------|

LEAD: Into RIFF 3 
|-------------------------------------------------| X4 <---------------------
|-------------14h15h16p15p14----------------------|                          |
|-14h15h16h17----------------17p16p15-------------|                          |
|-------------------------------------------------|                          |
|-------------------------------------------------|                          |
|-------------------------------------------------|                          |
This Also Continues Through RIFF 3 So If You Dont Wish To Play RIFF 3 Play This-- X20 Not X4

RIFF 3
|--------------------------------------------------------------------------|
|---------10---------------8--------------10--------------13---------------|
|---------10---------------8---------------9--------------13---------------|
|--0-0-0-0-0-0-0-0-0-0-0-0-0-0-0-0-0-0-0-0-0-0-0-0-0-0-0-0-0-0-0-0-0-0-0-0-|
|--------------------------------------------------------------------------|
|--------------------------------------------------------------------------|
PM . . . .   . . . . . . .   . . . . . . .   . . . . . . .   . . . . . . .

|--------------------------------------------------11-------|
|--15--------------11--------------10--------------12-------|
|--14--------------11--------------10-----------------------|
|---0-0-0-0-0-0-0-0-0-0-0-0-0-0-0-0-0-0-0-0-0-0-0-0-0-0-0-0-|
|-----------------------------------------------------------|
|-----------------------------------------------------------|
PM  . . . .   . . .   . . .   . . .   . . . . . . .   . . .

RIFF 4(The Sephiroth Part)
|---------------------------------------------------------------| <-----
|---------------------------------------------------------------|      |
|---------------------------------------------------------------|      |
|--7--7--7-6-7--7-7-8--7-7-8--7--7--7-6-7--7-7-8--7-7-8---------|      |
|--5--5--5-5-5--5-5-5--5-5-5--5--5--5-5-5--5-5-5--5-5-5---------|      |
|---------------------------------------------------------------|      |
PM .  .  . .    . .    . .    .  .  . .    . .    . .                  |
                                                                       |
                                                                       |  X2
|----------|-----5-5-5-3-3-6-6-5---3-6-|                               |
|-6-6------|---------------------------|                               |
|-7-7-7----|---------------------------|                               |
|-----7----|-0-0-0-0-0-0-0-0-0-0-0-0-0-| x2                            |
|----------|---------------------------|                               |
|----------|---------------------------| <------------------------------
PM           . . . . . . . . . . . . .

|------1--0-0-2----------------------1--1-1-0-------------------| X2
|---------------------------------------------------------------|
|--------------------3-3-----3-3-------------------3-3-----3-3--|
|--3-3-----------3-3-3-3-3-3-3-3-3-3-----------3-3-3-3-3-3-3-3--|
|--1-1-----------1-1-----1-1-----1-1-----------1-1-----1-1------|
|---------------------------------------------------------------|
PM . .           . . . . . . . . . .           . . . . . . . .

|-----------------------------------------------------------------------------------------------10L----------|
|----------------------------------------------------------6-6---------------------------6-6-------10L-------|
|----------------------------------------------------------7-7-7-------5--4--2-----------7-7-7--------10L----|
|--7--7--7-6-7--7-7-8--7-7-8--7--7--7-6-7--7-7-8--7-7-8--------7---0-0----------5--3--2------7-----------12L-|
|--5--5--5-5-5--5-5-5--5-5-5--5--5--5-5-5--5-5-5--5-5-5------------------------------------------------------|
|------------------------------------------------------------------------------------------------------------|
PM .  .  . .    . .    . .    .  .  . .    . .    . .              . .

RIFF 5                                              
|-------------------------------------------------------------------------------------------------------10--9--8--7L-|
|-----------8---11------13-12-11-12----13-12-15--14--13--12L------------8---11-----13-12-11-12----13-12--------------|
|-------9-----9----12-----------------------------------------------9-----9----12------------------------------------|
|--9------9----------------------------------------------------9------9----------------------------------------------|
|----10----------------------------------------------------------10--------------------------------------------------|
|--------------------------------------------------------------------------------------------------------------------|

|--6---6---6p5-------6p5-------5---6-5-7---7---7p5-------7p5-------5---7----| X2
|----8---8-----8-7-8-----8-7-8---8-------8---8-----8-7-8-----8-7-8---8---8--|
|---------------------------------------------------------------------------|
|---------------------------------------------------------------------------|
|---------------------------------------------------------------------------|
|---------------------------------------------------------------------------|

FILL: Into RIFF 6
|-11-12----11-12---------------------|
|----------------12-------15--14L----|
|-------------------12---------------|
|----------------------14------------|
|------------------------------------|
|------------------------------------|

RIFF 6
|--10p8-------8---------------------------------------------|
|-------11-10---11----10~----8-10-11p10p8------8-6----------|
|------------------12---------------------10-9-----7-9----7-|
|------------------------------------------------------10---|
|-----------------------------------------------------------|
|-----------------------------------------------------------|

|----5-5----3-3----6-6----5-5----3-3----8-8-8-|
|---------------------------------------------|
|---------------------------------------------|
|-------------------------------------3-------|
|--5------3------6------5------3--------------|
|---------------------------------------------|

|--10-8-6-5-8-6---5------5-6-5-------------|
|---------------8------8-------8-6-5-8-6---|
|----------------------------------------7-|
|------------------------------------------|
|------------------------------------------|
|------------------------------------------|

|-10-10-10-10-10-13~~--10-10-10-10-10-13~~--|
|--8--8--8--8--8-11~~---8--8--8--8--8-11~~--|
|-------------------------------------------|
|-------------------------------------------|
|-------------------------------------------|
|-------------------------------------------|

RIFF 7
|-------------------------------------------------------------|
|-------------------------------------------------------------|
|-------------------------------------------------------------|
|-0-1---1-0-1----0-3-0-0-0-1----0-1---1-0-1----0-3-0-0-0-1----|
|-----4-------4--------------4------4-------4--------------4--|
|-------------------------------------------------------------|

I Play this 15 times because the actual tune does it like 48 times wtf
|-19/22-19/22-19/22-19/22-19/22-------------------------------| X3
|-------------------------------------------------------------|
|-------------------------------------------------------------|
|-------------------------------------------------------------|
|-------------------------------------------------------------|
|-------------------------------------------------------------|

|-----------------13--12----------| X4
|-15--14------14----------15--14--|
|---------14----------------------|
|---------------------------------|
|---------------------------------|
|---------------------------------|

RIFF 8 (SEPHIROTH Again)
|----------|-----5-5-5-3-3-6-6-5---3-6-|
|-6-6------|---------------------------|
|-7-7-7----|---------------------------|
|-----7----|-0-0-0-0-0-0-0-0-0-0-0-0-0-| x2
|----------|---------------------------|
|----------|---------------------------|
             . . . . . . . . . . . . .

|---------------------------------------------------------------| <-----
|---------------------------------------------------------------|      |
|---------------------------------------------------------------|      |
|--7--7--7-6-7--7-7-8--7-7-8--7--7--7-6-7--7-7-8--7-7-8---------|      |
|--5--5--5-5-5--5-5-5--5-5-5--5--5--5-5-5--5-5-5--5-5-5---------|      |
|---------------------------------------------------------------|      |
PM .  .  . .    . .    . .    .  .  . .    . .    . .                  |
                                                                       |
                                                                       |  X2
|----------|-----5-5-5-3-3-6-6-5---3-6-|                               |
|-6-6------|---------------------------|                               |
|-7-7-7----|---------------------------|                               |
|-----7----|-0-0-0-0-0-0-0-0-0-0-0-0-0-| x2                            |
|----------|---------------------------|                               |
|----------|---------------------------| <------------------------------
PM           . . . . . . . . . . . . .

|------1--0-0-2----------------------1--1-1-0-------------------| X2
|---------------------------------------------------------------|
|--------------------3-3-----3-3-------------------3-3-----3-3--|
|--3-3-----------3-3-3-3-3-3-3-3-3-3-----------3-3-3-3-3-3-3-3--|
|--1-1-----------1-1-----1-1-----1-1-----------1-1-----1-1------|
|---------------------------------------------------------------|
PM . .           . . . . . . . . . .           . . . . . . . .

|-----------------------------------------------------------------------------------------------10L----------|
|----------------------------------------------------------6-6---------------------------6-6-------10L-------|
|----------------------------------------------------------7-7-7-------5--4--2-----------7-7-7--------10L----|
|--7--7--7-6-7--7-7-8--7-7-8--7--7--7-6-7--7-7-8--7-7-8--------7---0-0----------5--3--2------7-----------12L-|
|--5--5--5-5-5--5-5-5--5-5-5--5--5--5-5-5--5-5-5--5-5-5------------------------------------------------------|
|------------------------------------------------------------------------------------------------------------|
PM .  .  . .    . .    . .    .  .  . .    . .    . .              . .
                                            
|-------------------------------------------------------------------------------------------------------10--9--8--7L-|
|-----------8---11------13-12-11-12----13-12-15--14--13--12L------------8---11-----13-12-11-12----13-12--------------|
|-------9-----9----12-----------------------------------------------9-----9----12------------------------------------|
|--9------9----------------------------------------------------9------9----------------------------------------------|
|----10----------------------------------------------------------10--------------------------------------------------|
|--------------------------------------------------------------------------------------------------------------------|

|--6---6---6p5-------6p5-------5---6-5-7---7---7p5-------7p5-------5---7----| X2
|----8---8-----8-7-8-----8-7-8---8-------8---8-----8-7-8-----8-7-8---8---8--|
|---------------------------------------------------------------------------|
|---------------------------------------------------------------------------|
|---------------------------------------------------------------------------|
|---------------------------------------------------------------------------|

|-11-12----11-12---------------------|
|----------------12-------15--14L----|
|-------------------12---------------|
|----------------------14------------|
|------------------------------------|
|------------------------------------|

|--10p8-------8--------------------------------------|
|-------11-10---11----10~----8-10-11p10p8------8-6---|
|------------------12---------------------10-9-----7-|
|----------------------------------------------------|
|----------------------------------------------------|
|----------------------------------------------------|

|----5-5----3-3----6-6----5-5----3-3----8-8-8-|
|---------------------------------------------|
|---------------------------------------------|
|-------------------------------------3-------|
|--5------3------6------5------3--------------|
|---------------------------------------------|

|--10-8-6-5-8-6---5------5-6-5-------------|
|---------------8------8-------8-6-5-8-6---|
|----------------------------------------7-|
|------------------------------------------|
|------------------------------------------|
|------------------------------------------|

|-10-10-10-10-10-13~~--10-10-10-10-10-13~~--|
|--8--8--8--8--8-11~~---8--8--8--8--8-11~~--|
|-------------------------------------------|
|-------------------------------------------|
|-------------------------------------------|
|-------------------------------------------|

|-------------------------------------------------------------|
|-------------------------------------------------------------|
|-------------------------------------------------------------|
|-0-1---1-0-1----0-3-0-0-0-1----0-1---1-0-1----0-3-0-0-0-1----|
|-----4-------4--------------4------4-------4--------------4--|
|-------------------------------------------------------------|

|-19/22-19/22-19/22-19/22-19/22-| X3
|-------------------------------|
|-------------------------------|
|-------------------------------|
|-------------------------------|
|-------------------------------|

OUTRO (SEPHIROTH FINAL TIME)
|----------|-----5-5-5-3-3-6-6-5---3-6-|
|-6-6------|---------------------------|
|-7-7-7----|---------------------------|
|-----7----|-0-0-0-0-0-0-0-0-0-0-0-0-0-| x2
|----------|---------------------------|
|----------|---------------------------|

|---------------------------------------------------------------| <-----
|---------------------------------------------------------------|      |
|---------------------------------------------------------------|      |
|--7--7--7-6-7--7-7-8--7-7-8--7--7--7-6-7--7-7-8--7-7-8---------|      |
|--5--5--5-5-5--5-5-5--5-5-5--5--5--5-5-5--5-5-5--5-5-5---------|      |
|---------------------------------------------------------------|      |
PM .  .  . .    . .    . .    .  .  . .    . .    . .                  |
                                                                       |
                                                                       |  X2
|----------|-----5-5-5-3-3-6-6-5---3-6-|                               |
|-6-6------|---------------------------|                               |
|-7-7-7----|---------------------------|                               |
|-----7----|-0-0-0-0-0-0-0-0-0-0-0-0-0-| x2                            |
|----------|---------------------------|                               |
|----------|---------------------------| <------------------------------
PM           . . . . . . . . . . . . .

I Dont Think Its 100% But Please Comment

KEY
L  - Long/Sustained Note
/  - Slide Up
\  - Slide Down
h  - Hammer-On
p  - Pull-Off
^  - Bend 
PM - Palm Mute
~  - Vibrato 



        
Comments

@GALATAYA1993 (May 24, 2015 at 6:12 PM)

how come i put tabs on and some how they are not the original tabs i posted why change them