Gametabs
Home
Tabs
Random

Mark Of The Traitor

Average rating: No ratings

Composer:

Tabber:

Style:

Instrument:

Created: August 13, 2010 at 12:00 AM

            Song: Mark Of The Traitor
Game: Final Fantasy VII
Composer: Nobuo Uematsu
Tabbed by: Daugreano

Guitar: 
                                                                           Play these four measures 2x
|-----------------------------------------------------------------------------------------------------|
   Q    E   E   H       Q    E   E   Q    E   E     Q    E   E   Q    E   E     E   E   E   E   H
E|-L------------------|---------------------------|---------------------------|-----------------------|
B|------4---3---4-----|-L------------1----4---3---|-4--------1---3----1-------|-----1-------1---------|
G|--------------------|------1---3----------------|------3----------------3---|-1-------0-------------|
D|--------------------|---------------------------|---------------------------|-----------------3-----|
A|--------------------|---------------------------|---------------------------|-----------------------|
E|--------------------|---------------------------|---------------------------|-----------------------|


   Q    Q    Q    Q      Q    Q    Q    Q      Q    Q    Q    Q      Q    Q    Q    Q
E|---------------------|---------------------|---------------------|---------------------|
B|------1---------1----|---------------------|---------------------|---------------------|
G|-----------3---------|-1----0--------------|---------------------|---------------------|
D|---------------------|-----------3----1----|-0----3----1---------|---------------------|
A|---------------------|---------------------|----------------3----|-1-------------------|
E|---------------------|---------------------|---------------------|------4----3----1----|


   Q    E   E   H       Q    E   E   Q    E   E     Q    E   E   Q    E   E     E   E   E   E   H
E|--------------------|---------------------------|---------------------------|-----------------------|
B|------4---3---4-----|-L------------1----4---3---|-4--------1---3----1-------|-----1-------1---------|
G|--------------------|------1---3----------------|------3----------------3---|-1-------0-------------|
D|--------------------|---------------------------|---------------------------|-----------------3-----|
A|--------------------|---------------------------|---------------------------|-----------------------|
E|-L------------------|---------------------------|---------------------------|-----------------------|

   Q    E   E   Q    Q      Q    E   E   Q    Q      Q    E   E   H       W
E|------------------------|------------------------|--------------------|--------|
B|------------------------|------------------------|--------------------|--------|
G|----------1---3----1----|-0--------1---0---------|--------------------|--------|
D|-L----1-----------------|------3------------1----|-0--------0---1-----|-L------|
A|------------------------|------------------------|------3-------------|--------|
E|------------------------|------------------------|--------------------|--------|

   Q    E   E   Q    Q      Q    E   E   Q    Q      Q    E   E   H       W
E|------------------------|------------------------|--------------------|--------|
B|----------2---4----2----|-1--------2---1---------|--------------------|--------|
G|------1-----------------|------3------------1----|-0--------0---1-----|-L------|
D|-L----------------------|------------------------|------3-------------|--------|
A|------------------------|------------------------|--------------------|--------|
E|------------------------|------------------------|--------------------|--------|

   Q    E   E   Q    Q      W        Q    E   E   Q    E      W        W        W
E|----------2---4----2----|-1------|-L------------0---------|--------|--------|--------|
B|------2-----------------|--------|----------3--------3----|-2------|-L------|-L------|
G|-L----------------------|--------|------2-----------------|--------|--------|--------|
D|------------------------|--------|------------------------|--------|--------|--------|
A|------------------------|--------|------------------------|--------|--------|--------|
E|------------------------|--------|------------------------|--------|--------|--------|

   E   E   E   E   E   E   E   E     W        E   E   E   E   E   E   E   E     W
E|---------------------------------|--------|---------1---3---4---6---8---9---|-8------|
B|-------------------------1---2---|-1------|-2---4---------------------------|--------|
G|-------------0---1---3-----------|--------|---------------------------------|--------|
D|-----1---3-----------------------|--------|---------------------------------|--------|
A|-4-------------------------------|--------|---------------------------------|--------|
E|---------------------------------|--------|---------------------------------|--------|

   W
E|-L------|
B|--------|
G|--------|
D|--------|
A|--------|
E|--------|



        
Comments

No comments yet