Gametabs
Home
Tabs
Random

Mako Reactor

Average rating: No ratings

Composer:

Tabber:

Style:

Instrument:

Created: March 09, 2008 at 12:00 AM

            Mako Reactor
FINAL FANTASY VII (1997)

Tabbed by: Ameer Gattami
E-mail: [email protected]
Composed by: Nobuo Uematsu
Tuning: E A D G B E

GUITAR I = LEAD GUITAR
GUITAR II = BACK-UP GUITAR




GUITAR I:

E |----------------15--------------------
B |--------------------------16--(16)----
G |----12--13--15------(15)--------------
D |--------------------------------------
A |--------------------------------------
E |--------------------------------------

E |-------------------------------------------------
B |----------------15--------13--18p13--------------
G |--------------------------------------14--(14)---
D |----12--13--15------(15)-------------------------
A |-------------------------------------------------
E |-------------------------------------------------

E |----------------15--------------------
B |--------------------------16--(16)----
G |----12--13--15------(15)--------------
D |--------------------------------------
A |--------------------------------------
E |--------------------------------------

E |----------------14p0--12--13--(12)--13)----|
B |-------------------------------------------|
G |----10--12--13-----------------------------|
D |-------------------------------------------|
A |-------------------------------------------|
E |-------------------------------------------|


GUITAR I:

E |---------------------|
B |---------------------|
G |----5---5---3---3----|  x4
D |----5---5---3---3----|
A |---------------------|
E |---------------------|


GUITAR II:

       Cm      A#m
E |----3---3---1---1----|
B |----4---4---2---2----|
G |----5---5---3---3----|  x4
D |----5---5---3---3----|
A |----3---3---1---1----|
E |---------------------|


GUITAR I:

E |----6--5------------6--5-----------------------|
B |------------6--8----------6--8-----------------|
G |----------------------------------5---3---5----|
D |-----------------------------------------------|
A |-----------------------------------------------|
E |-----------------------------------------------|


GUITAR II:

                                     Gm  Fm  Gm
E |----------------------------------3---1---3----|
B |----------------------------------3---1---3----|
G |----------------------------------3---1---3----|
D |----------------------------------5---3---5----|
A |----------------------------------5---3---5----|
E |----------------------------------3---1---3----|


GUITAR I:

E |----6--5------------6--5--8--6-----------------|
B |------------6--8-------------------------------|
G |----------------------------------5---3---4----|
D |-----------------------------------------------|
A |-----------------------------------------------|
E |-----------------------------------------------|


GUITAR II:

                                     Gm  Fm  F#m
E |----------------------------------3---1---2----|
B |----------------------------------3---1---2----|
G |----------------------------------3---1---2----|
D |----------------------------------5---3---4----|
A |----------------------------------5---3---4----|
E |----------------------------------3---1---2----|


GUITAR I:

E |----9--8-------------9--8----------------------|
B |------------9--11----------9--11---------------|
G |-----------------------------------------------|
D |------------------------------------4--2--4----|
A |-----------------------------------------------|
E |-----------------------------------------------|


GUITAR II:

                                     F#m Em  F#m
E |----------------------------------2---0---2----|
B |----------------------------------2---0---2----|
G |----------------------------------2---0---2----|
D |----------------------------------4---2---4----|
A |----------------------------------4---2---4----|
E |----------------------------------2---0---2----|


GUITAR I:

E |----9--8-------------9--8--11--9---------------|
B |------------9--11------------------------------|
G |-----------------------------------------------|
D |------------------------------------3--6--5----|
A |-----------------------------------------------|
E |-----------------------------------------------|


GUITAR II:

E |------------------------------------3---6---5----|
B |------------------------------------3---6---5----|
G |------------------------------------3---6---5----|
D |------------------------------------5---8---7----|
A |------------------------------------5---8---7----|
E |------------------------------------3---6---5----|
                                       Gm  A#m Am




That's it! Remember that the chords of the clean guitar
can be played differently (I prefer some chords higher up
the neck). Also, I'm not sure if the chords played instead
of the chorus are correct. It might be the same key notes
but different chords. I'll update when I learn more.

Enjoy!

        
Comments

No comments yet