Gametabs
Home
Tabs
Random

Mako Reactor

Average rating: No ratings

Composer:

Tabber:

Style:

Instrument:

Created: December 18, 2012 at 12:00 AM

            Title: Mako Reactor
Artist: Nobuo Uematsu
Album: FF7 OST
Music: Nobuo Uematsu
Copyright: Squaresoft
Tabber: Hashel05
Tempo = 80


Melody 1



E |----|-----------------15----15g--|-----15g---15L15-15g---15g--|
B |----|----------------------------|----------------------------|
G |----|--------12-13-15----15g-----|--15g---15g---15g---15g-----|
D |----|----------------------------|----------------------------|
A |----|----------------------------|----------------------------|
E |----|----------------------------|----------------------------|


-----------------15---------|--18------------------------||
-----------------------18---|-----18g---18g---18g---18g--||
--------12-13-15----15g-----|--------18----18g---18g-----||
----------------------------|----------------------------||
----------------------------|----------------------------||
----------------------------|----------------------------||


----------------15---------|----------------------------|
----------------------16---|-----16g---16g---16g---16g--|
o------12-13-15----15g-----|--15g---15g---15g---15g-----|
o--------------------------|----------------------------|
---------------------------|----------------------------|
---------------------------|----------------------------|


----------------------------|----------------------------|
-----------------14----12---|--13-12g13g12g13g12g13g12g--|
--------10-12-13----13g-----|----------------------------|
----------------------------|----------------------------|
----------------------------|----------------------------|
----------------------------|----------------------------|


--8--8g-8--8g-6--6g-6--6g---|--8--8g-8--8g-6--6g-6--6g---|
--8--8g-8--8g-6--6g-6--6g---|--8--8g-8--8g-6--6g-6--6g---|
--8--8g-8--8g-6--6g-6--6g---|--8--8g-8--8g-6--6g-6--6g---|
--10-10g10-10g8--8g-8--8g---|--10-10g10-10g8--8g-8--8g---|
----------------------------|----------------------------|
----------------------------|----------------------------|


--8--8g-8--8g-6--6g-6--6g---|--8--8g-8--8g-6--6g-6--6g---|
--8--8g-8--8g-6--6g-6--6g---|--8--8g-8--8g-6--6g-6--6g---|
--8--8g-8--8g-6--6g-6--6g---|--8--8g-8--8g-6--6g-6--6g---|
--10-10g10-10g8--8g-8--8g---|--10-10g10-10g8--8g-8--8g---|
----------------------------|----------------------------|
----------------------------|----------------------------|


--6--6g-6--6g-5--5g-5--5g---|--6--6g-6--6g-5--5g-5--5g---|
--8--8g-8--8g-6--6g-6--6g---|--8--8g-8--8g-6--6g-6--6g---|
--7--7g-7--7g-5--5g-5--5g---|--7--7g-7--7g-5--5g-5--5g---|
----------------------------|----------------------------|
----------------------------|----------------------------|
----------------------------|----------------------------|


--6--6g-6--6g-5--5g-5--5g---|--6--6g-6--6g-5--5g-5--5g---|
--8--8g-8--8g-6--6g-6--6g---|--8--8g-8--8g-6--6g-6--6g---|
--7--7g-7--7g-5--5g-5--5g---|--7--7g-7--7g-5--5g-5--5g---|
----------------------------|----------------------------|
----------------------------|----------------------------|
----------------------------|----------------------------|


--6--6g-6--6g-5--5g-5--5g---|--6--6g-6--6g-5--5g-5--5g---|
--8--8g-8--8g-6--6g-6--6g---|--8--8g-8--8g-6--6g-6--6g---|
--7--7g-7--7g-5--5g-5--5g---|--7--7g-7--7g-5--5g-5--5g---|
----------------------------|----------------------------|
----------------------------|----------------------------|
----------------------------|----------------------------|


--6--6g-6--6g-5--5g-5--5g---|--6--6g-6--6g-5--5g-5--5g---|
--8--8g-8--8g-6--6g-6--6g---|--8--8g-8--8g-6--6g-6--6g---|
--7--7g-7--7g-5--5g-5--5g---|--7--7g-7--7g-5--5g-5--5g---|
----------------------------|----------------------------|
----------------------------|----------------------------|
----------------------------|----------------------------|


--6--6g-6--6g-4--4g-4--4g---|--6--6g-6--6g-4--4g-4--4g---|
--6--6g-6--6g-4--4g-4--4g---|--6--6g-6--6g-4--4g-4--4g---|
--6--6g-6--6g-5--5g-5--5g---|--6--6g-6--6g-5--5g-5--5g---|
--8--8g-8--8g-6--6g-6--6g---|--8--8g-8--8g-6--6g-6--6g---|
----------------------------|----------------------------|
----------------------------|----------------------------|


--6--6g-6--6g-4--4g-4--4g---|--6--6g-6--6g-4--4g-4--4g---|
--6--6g-6--6g-4--4g-4--4g---|--6--6g-6--6g-4--4g-4--4g---|
--6--6g-6--6g-5--5g-5--5g---|--6--6g-6--6g-5--5g-5--5g---|
--8--8g-8--8g-6--6g-6--6g---|--8--8g-8--8g-6--6g-6--6g---|
----------------------------|----------------------------|
----------------------------|----------------------------|


--6--6g-6--6g-4--4g-4--4g---|--6--6g-6--6g-4--4g-4--4g---|
--6--6g-6--6g-4--4g-4--4g---|--6--6g-6--6g-4--4g-4--4g---|
--6--6g-6--6g-5--5g-5--5g---|--6--6g-6--6g-5--5g-5--5g---|
--8--8g-8--8g-6--6g-6--6g---|--8--8g-8--8g-6--6g-6--6g---|
----------------------------|----------------------------|
----------------------------|----------------------------|


--6--6g-6--6g-4--4g-4--4g---|--6--6g-6--6g-4--4g-4--4g---|
--6--6g-6--6g-4--4g-4--4g---|--6--6g-6--6g-4--4g-4--4g---|
--6--6g-6--6g-5--5g-5--5g---|--6--6g-6--6g-5--5g-5--5g---|
--8--8g-8--8g-6--6g-6--6g---|--8--8g-8--8g-6--6g-6--6g---|
----------------------------|----------------------------|
----------------------------|----------------------------|


--6--6g-6--6g-4--4g-4--4g---|--6--6g-6--6g-4--4g-4--4g---|
--6--6g-6--6g-4--4g-4--4g---|--6--6g-6--6g-4--4g-4--4g---|
--6--6g-6--6g-5--5g-5--5g---|--6--6g-6--6g-5--5g-5--5g---|
--8--8g-8--8g-6--6g-6--6g---|--8--8g-8--8g-6--6g-6--6g---|
----------------------------|----------------------------|
----------------------------|----------------------------|


--6--6g-6--6g-4--4g-4--4g---|--6--6g-6--6g-4--4g-4--4g--||
--6--6g-6--6g-4--4g-4--4g---|--6--6g-6--6g-4--4g-4--4g--||
--6--6g-6--6g-5--5g-5--5g---|--6--6g-6--6g-5--5g-5--5g-o||
--8--8g-8--8g-6--6g-6--6g---|--8--8g-8--8g-6--6g-6--6g-o||
----------------------------|---------------------------||
----------------------------|---------------------------||


--6--6g-6--6g-4--4g-4--4g---|--6--6g-6--6g-4--4g-4--4g---|----|----||
--6--6g-6--6g-4--4g-4--4g---|--6--6g-6--6g-4--4g-4--4g---|----|----||
--6--6g-6--6g-5--5g-5--5g---|--6--6g-6--6g-5--5g-5--5g---|----|----||
--8--8g-8--8g-6--6g-6--6g---|--8--8g-8--8g-6--6g-6--6g---|----|----||
----------------------------|----------------------------|----|----||
----------------------------|----------------------------|----|----||


Melody 2



E |----|----|----|----|----||---|----|----|----|----|----|----|----|----|----|
B |----|----|----|----|----||---|----|----|----|----|----|----|----|----|----|
G |----|----|----|----|----||o--|----|----|----|----|----|----|----|----|----|
D |----|----|----|----|----||o--|----|----|----|----|----|----|----|----|----|
A |----|----|----|----|----||---|----|----|----|----|----|----|----|----|----|
E |----|----|----|----|----||---|----|----|----|----|----|----|----|----|----|


----|----|-----18-17------|--------15------|-----18-17------|--15---|
----|----|----------------|-----18---------|-----------18---|-------|
----|----|----------------|----------------|----------------|-------|
----|----|----------------|----------------|----------------|-------|
----|----|----------------|----------------|----------------|-------|
----|----|----------------|----------------|----------------|-------|


-----18-17------|--------15------|-----18-17-20---|--18---|-----21-20------|
----------------|-----18---------|----------------|-------|----------------|
----------------|----------------|----------------|-------|----------------|
----------------|----------------|----------------|-------|----------------|
----------------|----------------|----------------|-------|----------------|
----------------|----------------|----------------|-------|----------------|


--------18------|-----21-20------|--18---|-----21-20------|--------18------|
-----21---------|-----------21---|-------|----------------|-----21---------|
----------------|----------------|-------|----------------|----------------|
----------------|----------------|-------|----------------|----------------|
----------------|----------------|-------|----------------|----------------|
----------------|----------------|-------|----------------|----------------|


-----21-20-21b--|--21--||----|----|----|----||
----------------|------||----|----|----|----||
----------------|-----o||----|----|----|----||
----------------|-----o||----|----|----|----||
----------------|------||----|----|----|----||
----------------|------||----|----|----|----||


Bass



G |----|----------------------------------------------------|
D |----|----------------------------------------------------|
A |----|--3L----------3-----3--3--3-----------3-------------|
E |----|----------------------------------------------------|


----------------------------------------------------|
----------------------------------------------------|
--3L----------------------3L----------3-------------|
----------------------------------------------------|


----------------------------------------------------|
----------------------------------------------------|
--3L----------3-----3--3--3-----------3-------------|
----------------------------------------------------|


----------------------------------------------------||
----------------------------------------------------||
--3L----------------------3L----------3-------------||
----------------------------------------------------||


---------------------------------------------------|
o--------------------------------------------------|
o3L----------3-----3--3--3-----------3-------------|
---------------------------------------------------|


----------------------------------------------------|
----------------------------------------------------|
--3L----------------------3L----------3-------------|
----------------------------------------------------|


----------------------------------------------------|
----------------------------------------------------|
--3L----------3-----3--3--3-----------3-------------|
----------------------------------------------------|


----------------------------------------------------|
----------------------------------------------------|
--3L----------------------3L----------3-------------|
----------------------------------------------------|


----------------------------------------------------|
----------------------------------------------------|
--3L----------3-----3--3--3-----------3-------------|
----------------------------------------------------|


----------------------------------------------------|
----------------------------------------------------|
--3L----------------------3L----------3-------------|
----------------------------------------------------|


----------------------------------------------------|
----------------------------------------------------|
--3L----------3-----3--3--3-----------3-------------|
----------------------------------------------------|


----------------------------------------------------|
----------------------------------------------------|
--3L----------------------3L----------3-------------|
----------------------------------------------------|


----------------------------------------------------|
----------------------------------------------------|
--3L----------3-----3--3--3-----------3-------------|
----------------------------------------------------|


----------------------------------------------------|
----------------------------------------------------|
--3L----------------------3L----------3-------------|
----------------------------------------------------|


----------------------------------------------------|
----------------------------------------------------|
--3L----------3-----3--3--3-----------3-------------|
----------------------------------------------------|


----------------------------------------------------|
----------------------------------------------------|
--3L----------------------3L----------3-------------|
----------------------------------------------------|


----------------------------------------------------|
----------------------------------------------------|
----------------------------------------------------|
--3L----------3-----3--3--3-----------3-------------|


----------------------------------------------------|
----------------------------------------------------|
----------------------------------------------------|
--3L----------------------3L----------3-------------|


----------------------------------------------------|
----------------------------------------------------|
----------------------------------------------------|
--3L----------3-----3--3--3-----------3-------------|


----------------------------------------------------|
----------------------------------------------------|
----------------------------------------------------|
--3L----------------------3L----------3-------------|


----------------------------------------------------|
----------------------------------------------------|
----------------------------------------------------|
--3L----------3-----3--3--3-----------3-------------|


----------------------------------------------------|
----------------------------------------------------|
----------------------------------------------------|
--3L----------------------3L----------3-------------|


----------------------------------------------------|
----------------------------------------------------|
----------------------------------------------------|
--3L----------3-----3--3--3-----------3-------------|


----------------------------------------------------|
----------------------------------------------------|
----------------------------------------------------|
--3L----------------------3L----------3-------------|


----------------------------------------------------|
----------------------------------------------------|
--1L----------1-----1--1--1-----------1-------------|
----------------------------------------------------|


----------------------------------------------------|
----------------------------------------------------|
--1L----------------------1L----------1-------------|
----------------------------------------------------|


----------------------------------------------------|
----------------------------------------------------|
--1L----------1-----1--1--1-----------1-------------|
----------------------------------------------------|


----------------------------------------------------|
----------------------------------------------------|
--1L----------------------1L----------1-------------|
----------------------------------------------------|


----------------------------------------------------|
----------------------------------------------------|
--1L----------1-----1--1--1-----------1-------------|
----------------------------------------------------|


----------------------------------------------------|
----------------------------------------------------|
--1L----------------------1L----------1-------------|
----------------------------------------------------|


----------------------------------------------------|
----------------------------------------------------|
--1L----------1-----1--1--1-----------1-------------|
----------------------------------------------------|


---------------------------------------------------||
--------------------------------------------------o||
--1L----------------------1L----------1-----------o||
---------------------------------------------------||


----------------------------------------------------|
----------------------------------------------------|
--3L----------3-----3--3--3-----------3-------------|
----------------------------------------------------|


----------------------------------------------------|----|----||
----------------------------------------------------|----|----||
--3L----------------------3L----------3-------------|----|----||
----------------------------------------------------|----|----||

        
Comments

No comments yet