Gametabs
Home
Tabs
Random

Lifestream

Average rating: No ratings

Composer:

Tabber:

Style:

Instrument:

Created: December 18, 2012 at 12:00 AM

            Title: Lifestream
Artist: Nobuo Uematsu
Album: FF7 OST
Music: Nobuo Uematsu
Copyright: Squaresoft
Tabber: Hashel05
Tempo = 80


Melody



E |----|----|----|----|----|-----15------|--14---|----|-------------|-------|
B |----|----|----|----|----|--------15---|-------|----|--------17---|--15---|
G |----|----|----|----|----|-------------|-------|----|-----17------|-------|
D |----|----|----|----|----|-------------|-------|----|-------------|-------|
A |----|----|----|----|----|-------------|-------|----|-------------|-------|
E |----|----|----|----|----|-------------|-------|----|-------------|-------|


----|----|----|----|----|----||------------|-------------|-------|----|
----|----|----|----|----|----||------------|--15---------|-------|----|
----|----|----|----|----|----||o---16-17---|-----16-12---|--10---|----|
----|----|----|----|----|----||o-----------|-------------|-------|----|
----|----|----|----|----|----||------------|-------------|-------|----|
----|----|----|----|----|----||------------|-------------|-------|----|


-------------|-------------|-------------|-------------|-------------|
-------------|--15---------|--17---------|--15---------|-------------|
-----16-17---|-----16-12---|-------------|-------------|-----16-17---|
-------------|-------------|-------------|-------------|-------------|
-------------|-------------|-------------|-------------|-------------|
-------------|-------------|-------------|-------------|-------------|


-------------|-------------|-------------|-------------|-------------|-------|
--15---------|-------------|-------------|-------------|-------------|-------|
-----16-12---|--10---------|--10-12-14---|--12---------|--12-15-14---|--12---|
-------------|-------------|-------------|-------------|-------------|-------|
-------------|-------------|-------------|-------------|-------------|-------|
-------------|-------------|-------------|-------------|-------------|-------|


----|-------------|-------------|-------|----|-------------|-------------|
----|-------------|--15---------|-------|----|-------------|--15---------|
----|-----16-17---|-----16-12---|--10---|----|-----16-17---|-----16-12---|
----|-------------|-------------|-------|----|-------------|-------------|
----|-------------|-------------|-------|----|-------------|-------------|
----|-------------|-------------|-------|----|-------------|-------------|


-------------|-------------|-------------|-------------|-------------|
--17---------|--15---------|-------------|--15---------|-------------|
-------------|-------------|-----16-17---|-----16-12---|--10---------|
-------------|-------------|-------------|-------------|-------------|
-------------|-------------|-------------|-------------|-------------|
-------------|-------------|-------------|-------------|-------------|


-------------|-------------|-------------|-------|-------------|----|----|----|
-------------|-------------|-------------|-------|-------------|----|----|----|
--10-12-14---|--12---------|--12-15-14---|--12L--|--12---------|----|----|----|
-------------|-------------|-------------|-------|-------------|----|----|----|
-------------|-------------|-------------|-------|-------------|----|----|----|
-------------|-------------|-------------|-------|-------------|----|----|----|


----|----|----|----|---|||
----|----|----|----|---|||
----|----|----|----|--o|||
----|----|----|----|--o|||
----|----|----|----|---|||
----|----|----|----|---|||



Chords



E |----|----|----|----|----|----|----|----|----|----|----|----|----|----|----|
B |----|----|----|----|----|----|----|----|----|----|----|----|----|----|----|
G |----|----|----|----|----|----|----|----|----|----|----|----|----|----|----|
D |----|----|----|----|----|----|----|----|----|----|----|----|----|----|----|
A |----|----|----|----|----|----|----|----|----|----|----|----|----|----|----|
E |----|----|----|----|----|----|----|----|----|----|----|----|----|----|----|


----||-10L--|--10---|--5----|--8----|--10L--|--10---|--5----|--8----|--10L--|
----||-12L--|--12---|--8----|--10---|--12L--|--12---|--8----|--10---|--12L--|
----||o12L--|--12---|--5----|--10---|--12L--|--12---|--5----|--10---|--12L--|
----||o12L--|--12---|--7----|--10---|--12L--|--12---|--7----|--10---|--12L--|
----||-10L--|--10---|--8----|--8----|--10L--|--10---|--8----|--8----|--10L--|
----||------|-------|-------|-------|-------|-------|-------|-------|-------|


--10---|--5L---|--5----|--6----|--3----|--10L--|--10---|--10L--|--10---|--13---|
--12---|--8L---|--8----|--8----|--4----|--12L--|--12---|--12L--|--12---|--13---|
--12---|--5L---|--5----|--8----|--3----|--12L--|--12---|--12L--|--12---|--14---|
--12---|--7L---|--7----|--8----|--5----|--12L--|--12---|--12L--|--12---|--13---|
--10---|--8L---|--8----|--6----|--3----|--10L--|--10---|--10L--|--10---|--15---|
-------|-------|-------|-------|-------|-------|-------|-------|-------|--13---|


--8----|--10L--|--10---|--13---|--8----|--10L--|--10---|--13---|--8----|--6----|
--10---|--12L--|--12---|--13---|--10---|--12L--|--12---|--13---|--10---|--8----|
--10---|--12L--|--12---|--14---|--10---|--12L--|--12---|--14---|--10---|--8----|
--10---|--12L--|--12---|--13---|--10---|--12L--|--12---|--13---|--10---|--8----|
--8----|--10L--|--10---|--15---|--8----|--10L--|--10---|--15---|--8----|--6----|
-------|-------|-------|--13---|-------|-------|-------|--13---|-------|-------|


--3----|--10L--|--10---|--10L--|--10---|--13---|--8----|--10L--|--10---|--13---|
--4----|--12L--|--12---|--12L--|--12---|--13---|--10---|--12L--|--12---|--13---|
--3----|--12L--|--12---|--12L--|--12---|--14---|--10---|--12L--|--12---|--14---|
--5----|--12L--|--12---|--12L--|--12---|--13---|--10---|--12L--|--12---|--13---|
--3----|--10L--|--10---|--10L--|--10---|--15---|--8----|--10L--|--10---|--15---|
-------|-------|-------|-------|-------|--13---|-------|-------|-------|--13---|


--8---|||
--10--|||
--10-o|||
--10-o|||
--8---|||
------|||


Bass



G |----|----|----|----|----|----|-------|-------|-------|-------|-------|
D |----|----|----|----|----|----|-------|-------|-------|-------|-------|
A |----|----|----|----|----|----|-------|-------|-------|-------|-------|
E |----|----|----|----|----|----|--3L---|--3L---|--3----|--3L---|--3----|


-------|-------|-------|-------|-------||------|-------|-------|-------|-------|
-------|-------|-------|-------|-------||o-----|-------|-------|--3----|-------|
--5----|-------|-------|--3L---|--3----||o-----|-------|--3----|-------|-------|
-------|--5L---|--5----|-------|-------||-3L---|--3----|-------|-------|--3L---|


-------|-------|-------|-------|-------|-------|-------|-------|-------|-------|
-------|-------|--3----|-------|-------|-------|--3----|-------|-------|-------|
-------|--3----|-------|-------|-------|--3----|-------|-------|-------|--5----|
--3----|-------|-------|--3L---|--3----|-------|-------|--6L---|--6----|-------|


-------|-------|-------|-------|-------|-------|-------|-------|-------|-------|
--5----|-------|-------|-------|--3----|-------|-------|--3----|--7----|-------|
-------|-------|-------|--3----|-------|-------|-------|-------|-------|-------|
-------|--3L---|--3----|-------|-------|--3L---|--3----|-------|-------|--3L---|


-------|-------|-------|-------|-------|-------|-------|-------|-------|-------|
-------|-------|--3----|-------|-------|-------|-------|-------|-------|--3----|
-------|--3----|-------|-------|-------|--5----|--2----|-------|-------|-------|
--3----|-------|-------|--6L---|--6----|-------|-------|--3L---|--3----|-------|


-------|-------|-------|-------|------|||
--7----|-------|-------|-------|--3--o|||
-------|-------|-------|--3----|-----o|||
-------|--3L---|--3----|-------|------|||
        
Comments

No comments yet