Gametabs
Home
Tabs
Random

Jenova Absolute

Average rating: 4.800

5 ratings

Composer:

Tabber:

Style:

Instrument:

Created: October 20, 2012 at 12:00 AM

            
Lead

E||-------|-------|-------|-------|-------|-------|-------|-------|-------|-------|-------|-------|-------|
B||-------|-------|-------|-------|-------|-------|-------|-------|-------|-------|-------|-------|-------|
G||-------|-------|-------|-------|-------|-------|-------|-------|-------|-------|-------|-------|-------|
D||-------|-------|-------|-------|-------|-------|-------|-------|-------|-------|-------|-------|-------|
A||-------|-------|-------|-------|-------|-------|-------|-------|-------|-------|-------|-------|-------|
E||-------|-------|-------|-------|-------|-------|-------|-------|-------|-------|-------|-------|-------|


                                    H.              H.               H.              H.            
-------|-------|-------|-------||----------------|---------------|----------------|---------------|
-------|-------|-------|-------||----------------|---------------|----------------|---------------|
-------|-------|-------|-------||*---------------|---------------|----------------|---------------|
-------|-------|-------|-------||*---------------|---------------|--10------------|--8------------|
-------|-------|-------|-------||---8------------|--L------------|----------------|---------------|
-------|-------|-------|-------||----------------|---------------|----------------|---------------|


  H.              H.              H.              H.               H.              H.            
---------------|---------------|---------------|---------------|----------------|---------------|
---------------|---------------|---------------|---------------|----------------|---------------|
--8------------|--L------------|--7------------|--L------------|----------------|---------------|
---------------|---------------|---------------|---------------|--10------------|--L------------|
---------------|---------------|---------------|---------------|----------------|---------------|
---------------|---------------|---------------|---------------|----------------|---------------|


  H.              H.                                                                            
---------------|---------------|---------------|---------------|---------------|---------------|
---------------|---------------|---------------|---------------|---------------|---------------|
---------------|---------------|---------------|---------------|---------------|---------------|
--L------------|--L------------|---------------|---------------|---------------|---------------|
---------------|---------------|---------------|---------------|---------------|---------------|
---------------|---------------|---------------|---------------|---------------|---------------|


  H.              H.               H.              H.              H.              H.            
---------------|---------------|----------------|---------------|---------------|---------------|
---------------|---------------|----------------|---------------|---------------|---------------|
---------------|---------------|----------------|---------------|--8------------|--L------------|
---------------|---------------|--10------------|--8------------|---------------|---------------|
--8------------|--L------------|----------------|---------------|---------------|---------------|
---------------|---------------|----------------|---------------|---------------|---------------|


  H.              H.               H.              H.               H.              H.            
---------------|---------------|----------------|---------------|----------------|---------------|
---------------|---------------|----------------|---------------|----------------|---------------|
--7------------|--L------------|----------------|---------------|--10------------|--L------------|
---------------|---------------|--10------------|--L------------|----------------|---------------|
---------------|---------------|----------------|---------------|----------------|---------------|
---------------|---------------|----------------|---------------|----------------|---------------|


  H.              H.                                              H.              H.            
---------------|---------------|---------------|---------------|---------------|---------------|
---------------|---------------|---------------|---------------|---------------|---------------|
--L------------|--L------------|---------------|---------------|---------------|---------------|
---------------|---------------|---------------|---------------|---------------|---------------|
---------------|---------------|---------------|---------------|--8------------|--L------------|
---------------|---------------|---------------|---------------|---------------|---------------|


  H.               H.              H.              H.              H.              H.            
---------------|----------------|---------------|---------------|---------------|---------------|
---------------|----------------|---------------|---------------|---------------|---------------|
---------------|----------------|---------------|---------------|---------------|---------------|
--8------------|----------------|---------------|---------------|---------------|---------------|
---------------|--11------------|--8------------|--L------------|--L------------|--L------------|
---------------|----------------|---------------|---------------|---------------|---------------|


  H.              H.               H.               H.              H.              H.            
---------------|---------------|----------------|----------------|---------------|---------------|
---------------|---------------|----------------|----------------|---------------|---------------|
---------------|---------------|----------------|----------------|---------------|---------------|
---------------|---------------|--11------------|--10------------|---------------|---------------|
--8------------|--L------------|----------------|----------------|--8------------|--L------------|
---------------|---------------|----------------|----------------|---------------|---------------|


  H.              H.                                                                            
---------------|---------------|---------------|---------------|---------------|---------------|
---------------|---------------|---------------|---------------|---------------|---------------|
---------------|---------------|---------------|---------------|---------------|---------------|
---------------|---------------|---------------|---------------|---------------|---------------|
--L------------|--L------------|---------------|---------------|---------------|---------------|
---------------|---------------|---------------|---------------|---------------|---------------|


---------------|---------------|---------------|---------------|---------------|---------------|
---------------|---------------|---------------|---------------|---------------|---------------|
---------------|---------------|---------------|---------------|---------------|---------------|
---------------|---------------|---------------|---------------|---------------|---------------|
---------------|---------------|---------------|---------------|---------------|---------------|
---------------|---------------|---------------|---------------|---------------|---------------|


---------------|---------------|---------------|---------------|---------------|---------------|
---------------|---------------|---------------|---------------|---------------|---------------|
---------------|---------------|---------------|---------------|---------------|---------------|
---------------|---------------|---------------|---------------|---------------|---------------|
---------------|---------------|---------------|---------------|---------------|---------------|
---------------|---------------|---------------|---------------|---------------|---------------|


---------------|---------------|---------------|---------------|---------------|---------------|
---------------|---------------|---------------|---------------|---------------|---------------|
---------------|---------------|---------------|---------------|---------------|---------------|
---------------|---------------|---------------|---------------|---------------|---------------|
---------------|---------------|---------------|---------------|---------------|---------------|
---------------|---------------|---------------|---------------|---------------|---------------|


---------------|---------------|---------------|---------------|---------------|---------------|
---------------|---------------|---------------|---------------|---------------|---------------|
---------------|---------------|---------------|---------------|---------------|---------------|
---------------|---------------|---------------|---------------|---------------|---------------|
---------------|---------------|---------------|---------------|---------------|---------------|
---------------|---------------|---------------|---------------|---------------|---------------|


---------------|---------------|---------------|---------------|---------------|---------------|
---------------|---------------|---------------|---------------|---------------|---------------|
---------------|---------------|---------------|---------------|---------------|---------------|
---------------|---------------|---------------|---------------|---------------|---------------|
---------------|---------------|---------------|---------------|---------------|---------------|
---------------|---------------|---------------|---------------|---------------|---------------|


---------------|---------------|---------------|---------------|---------------|---------------|
---------------|---------------|---------------|---------------|---------------|---------------|
---------------|---------------|---------------|---------------|---------------|---------------|
---------------|---------------|---------------|---------------|---------------|---------------|
---------------|---------------|---------------|---------------|---------------|---------------|
---------------|---------------|---------------|---------------|---------------|---------------|


---------------|---------------|---------------|---------------|---------------|---------------|
---------------|---------------|---------------|---------------|---------------|---------------|
---------------|---------------|---------------|---------------|---------------|---------------|
---------------|---------------|---------------|---------------|---------------|---------------|
---------------|---------------|---------------|---------------|---------------|---------------|
---------------|---------------|---------------|---------------|---------------|---------------|


---------------|---------------|---------------|---------------|---------------|---------------|
---------------|---------------|---------------|---------------|---------------|---------------|
---------------|---------------|---------------|---------------|---------------|---------------|
---------------|---------------|---------------|---------------|---------------|---------------|
---------------|---------------|---------------|---------------|---------------|---------------|
---------------|---------------|---------------|---------------|---------------|---------------|


                                                                3x
---------------|---------------|---------------|----------------||
---------------|---------------|---------------|----------------||
---------------|---------------|---------------|---------------*||
---------------|---------------|---------------|---------------*||
---------------|---------------|---------------|----------------||
---------------|---------------|---------------|----------------||


Harmony

E||-------|-------|-------|-------|-------|-------|-------|-------|-------|-------|-------|-------|-------|
B||-------|-------|-------|-------|-------|-------|-------|-------|-------|-------|-------|-------|-------|
G||-------|-------|-------|-------|-------|-------|-------|-------|-------|-------|-------|-------|-------|
D||-------|-------|-------|-------|-------|-------|-------|-------|-------|-------|-------|-------|-------|
A||-------|-------|-------|-------|-------|-------|-------|-------|-------|-------|-------|-------|-------|
E||-------|-------|-------|-------|-------|-------|-------|-------|-------|-------|-------|-------|-------|


                                    H.              H.               H.               H.            
-------|-------|-------|-------||----------------|---------------|----------------|----------------|
-------|-------|-------|-------||----------------|---------------|----------------|----------------|
-------|-------|-------|-------||*---------------|---------------|----------------|----------------|
-------|-------|-------|-------||*---------------|---------------|----------------|----------------|
-------|-------|-------|-------||----------------|---------------|--11------------|--10------------|
-------|-------|-------|-------||---8------------|--L------------|----------------|----------------|


   H.              H.              H.              H.              H.              H.            
----------------|---------------|---------------|---------------|---------------|---------------|
----------------|---------------|---------------|---------------|---------------|---------------|
----------------|---------------|---------------|---------------|---------------|---------------|
--10------------|--L------------|--8------------|--L------------|---------------|---------------|
----------------|---------------|---------------|---------------|--8------------|--L------------|
----------------|---------------|---------------|---------------|---------------|---------------|


  H.              H.                                                              H.            
---------------|---------------|---------------|---------------|-------|-------|---------------|
---------------|---------------|---------------|---------------|-------|-------|---------------|
---------------|---------------|---------------|---------------|-------|-------|---------------|
---------------|---------------|---------------|---------------|-------|-------|---------------|
--L------------|--L------------|---------------|---------------|-------|-------|---------------|
---------------|---------------|---------------|---------------|-------|-------|--8------------|


  H.               H.               H.               H.              H.              H.            
---------------|----------------|----------------|----------------|---------------|---------------|
---------------|----------------|----------------|----------------|---------------|---------------|
---------------|----------------|----------------|----------------|---------------|---------------|
---------------|----------------|----------------|--10------------|--L------------|--8------------|
---------------|--11------------|--10------------|----------------|---------------|---------------|
--L------------|----------------|----------------|----------------|---------------|---------------|


  H.              H.              H.               H.              H.              H.            
---------------|---------------|---------------|----------------|---------------|---------------|
---------------|---------------|---------------|----------------|---------------|---------------|
---------------|---------------|---------------|----------------|---------------|---------------|
--L------------|---------------|---------------|--10------------|--L------------|--L------------|
---------------|--8------------|--L------------|----------------|---------------|---------------|
---------------|---------------|---------------|----------------|---------------|---------------|


  H.                              H.              H.              H.              H.            
---------------|-------|-------|---------------|---------------|---------------|---------------|
---------------|-------|-------|---------------|---------------|---------------|---------------|
---------------|-------|-------|---------------|---------------|---------------|---------------|
--L------------|-------|-------|---------------|---------------|---------------|---------------|
---------------|-------|-------|---------------|---------------|--8------------|---------------|
---------------|-------|-------|--9------------|--L------------|---------------|--9------------|


  H.              H.              H.              H.              H.              H.            
---------------|---------------|---------------|---------------|---------------|---------------|
---------------|---------------|---------------|---------------|---------------|---------------|
---------------|---------------|---------------|---------------|---------------|---------------|
---------------|---------------|---------------|---------------|---------------|---------------|
---------------|---------------|---------------|---------------|---------------|---------------|
--8------------|--L------------|--L------------|--L------------|--9------------|--L------------|


  H.              H.              H.              H.              H.              H.            
---------------|---------------|---------------|---------------|---------------|---------------|
---------------|---------------|---------------|---------------|---------------|---------------|
---------------|---------------|---------------|---------------|---------------|---------------|
---------------|---------------|---------------|---------------|---------------|---------------|
--8------------|--8------------|---------------|---------------|---------------|---------------|
---------------|---------------|--8------------|--L------------|--L------------|--L------------|


---------------|---------------|---------------|---------------|---------------|---------------|
---------------|---------------|---------------|---------------|---------------|---------------|
---------------|---------------|---------------|---------------|---------------|---------------|
---------------|---------------|---------------|---------------|---------------|---------------|
---------------|---------------|---------------|---------------|---------------|---------------|
---------------|---------------|---------------|---------------|---------------|---------------|


---------------|---------------|---------------|---------------|---------------|---------------|
---------------|---------------|---------------|---------------|---------------|---------------|
---------------|---------------|---------------|---------------|---------------|---------------|
---------------|---------------|---------------|---------------|---------------|---------------|
---------------|---------------|---------------|---------------|---------------|---------------|
---------------|---------------|---------------|---------------|---------------|---------------|


---------------|---------------|---------------|---------------|---------------|---------------|
---------------|---------------|---------------|---------------|---------------|---------------|
---------------|---------------|---------------|---------------|---------------|---------------|
---------------|---------------|---------------|---------------|---------------|---------------|
---------------|---------------|---------------|---------------|---------------|---------------|
---------------|---------------|---------------|---------------|---------------|---------------|


---------------|---------------|---------------|---------------|---------------|---------------|
---------------|---------------|---------------|---------------|---------------|---------------|
---------------|---------------|---------------|---------------|---------------|---------------|
---------------|---------------|---------------|---------------|---------------|---------------|
---------------|---------------|---------------|---------------|---------------|---------------|
---------------|---------------|---------------|---------------|---------------|---------------|


---------------|---------------|---------------|---------------|---------------|---------------|
---------------|---------------|---------------|---------------|---------------|---------------|
---------------|---------------|---------------|---------------|---------------|---------------|
---------------|---------------|---------------|---------------|---------------|---------------|
---------------|---------------|---------------|---------------|---------------|---------------|
---------------|---------------|---------------|---------------|---------------|---------------|


---------------|---------------|---------------|---------------|---------------|---------------|
---------------|---------------|---------------|---------------|---------------|---------------|
---------------|---------------|---------------|---------------|---------------|---------------|
---------------|---------------|---------------|---------------|---------------|---------------|
---------------|---------------|---------------|---------------|---------------|---------------|
---------------|---------------|---------------|---------------|---------------|---------------|


                                                                   H.              H.            
---------------|---------------|---------------|---------------|----------------|---------------|
---------------|---------------|---------------|---------------|----------------|---------------|
---------------|---------------|---------------|---------------|--10------------|--L------------|
---------------|---------------|---------------|---------------|----------------|---------------|
---------------|---------------|---------------|---------------|----------------|---------------|
---------------|---------------|---------------|---------------|----------------|---------------|


   H.              H.               H.              H.              H.              H.            
----------------|---------------|----------------|---------------|---------------|---------------|
----------------|---------------|----------------|---------------|---------------|---------------|
--12------------|--L------------|--13------------|--L------------|--L------------|--L------------|
----------------|---------------|----------------|---------------|---------------|---------------|
----------------|---------------|----------------|---------------|---------------|---------------|
----------------|---------------|----------------|---------------|---------------|---------------|


   H.              H.               H.              H.               H.              H.            
----------------|---------------|----------------|---------------|----------------|---------------|
----------------|---------------|----------------|---------------|----------------|---------------|
--10------------|--L------------|--12------------|--L------------|--13------------|--L------------|
----------------|---------------|----------------|---------------|----------------|---------------|
----------------|---------------|----------------|---------------|----------------|---------------|
----------------|---------------|----------------|---------------|----------------|---------------|


  H.              H.            3x
---------------|----------------||
---------------|----------------||
--L------------|--L------------*||
---------------|---------------*||
---------------|----------------||
---------------|----------------||


Bwa da da da da da
                      E   E  E   E  E   E     E   E   E   E   E   E      E   E   E   E   E   E         
E||-------|-------|------------------------|-----------------18------|------18--20--18--23--25--|-----|
B||-------|-------|--11p--8--9p--6--8p--4--|-----18--20--21------20--|--21----------------------|-----|
G||-------|-------|------------------------|-------------------------|--------------------------|-----|
D||-------|-------|------------------------|-------------------------|--------------------------|-----|
A||-------|-------|------------------------|-------------------------|--------------------------|-----|
E||-------|-------|------------------------|-------------------------|--------------------------|-----|


   E   E  E   E  E   E     E   E   E   E   E   E      E   E   E   E   E   E           
------------------------|-----------------18------|------18--20--18--23--25--|-------|
--11p--8--9p--6--8p--4--|-----18--20--21------20--|--21----------------------|-------|
------------------------|-------------------------|--------------------------|-------|
------------------------|-------------------------|--------------------------|-------|
------------------------|-------------------------|--------------------------|-------|
------------------------|-------------------------|--------------------------|-------|


   E   E  E   E  E   E     E   E   E   E   E   E      E   E   E   E   E   E            E   E  E   E  E   E   
------------------------|-----------------18------|------18--20--18--23--25--|-----|------------------------|
--11p--8--9p--6--8p--4--|-----18--20--21------20--|--21----------------------|-----|--11p--8--9p--6--8p--4--|
------------------------|-------------------------|--------------------------|-----|------------------------|
------------------------|-------------------------|--------------------------|-----|------------------------|
------------------------|-------------------------|--------------------------|-----|------------------------|
------------------------|-------------------------|--------------------------|-----|------------------------|


  E   E   E   E   E   E      E   E   E   E   E   E                E   E  E   E  E   E   
-----------------18------|------18--20--18--23--25--||--------|------------------------|
-----18--20--21------20--|--21----------------------||--------|--11p--8--9p--6--8p--4--|
-------------------------|--------------------------||*-------|------------------------|
-------------------------|--------------------------||*-------|------------------------|
-------------------------|--------------------------||--------|------------------------|
-------------------------|--------------------------||--------|------------------------|


  E   E   E   E   E   E      E   E   E   E   E   E            E   E  E   E  E   E     E   E   E   E   E   E   
-----------------18------|------18--20--18--23--25--|-----|------------------------|-----------------18------|
-----18--20--21------20--|--21----------------------|-----|--11p--8--9p--6--8p--4--|-----18--20--21------20--|
-------------------------|--------------------------|-----|------------------------|-------------------------|
-------------------------|--------------------------|-----|------------------------|-------------------------|
-------------------------|--------------------------|-----|------------------------|-------------------------|
-------------------------|--------------------------|-----|------------------------|-------------------------|


   E   E   E   E   E   E              E   E  E   E  E   E     E   E   E   E   E   E   
------18--20--18--23--25--|-------|------------------------|-----------------18------|
--21----------------------|-------|--11p--8--9p--6--8p--4--|-----18--20--21------20--|
--------------------------|-------|------------------------|-------------------------|
--------------------------|-------|------------------------|-------------------------|
--------------------------|-------|------------------------|-------------------------|
--------------------------|-------|------------------------|-------------------------|


   E   E   E   E   E   E            E   E  E   E  E   E     E   E   E   E   E   E   
------18--20--18--23--25--|-----|------------------------|-----------------18------|
--21----------------------|-----|--11p--8--9p--6--8p--4--|-----18--20--21------20--|
--------------------------|-----|------------------------|-------------------------|
--------------------------|-----|------------------------|-------------------------|
--------------------------|-----|------------------------|-------------------------|
--------------------------|-----|------------------------|-------------------------|


   E   E   E   E   E   E              E   E  E   E  E   E     E   E   E   E   E   E   
------18--20--18--23--25--|-------|------------------------|-----------------18------|
--21----------------------|-------|--11p--8--9p--6--8p--4--|-----18--20--21------20--|
--------------------------|-------|------------------------|-------------------------|
--------------------------|-------|------------------------|-------------------------|
--------------------------|-------|------------------------|-------------------------|
--------------------------|-------|------------------------|-------------------------|


   E   E   E   E   E   E            E   E  E   E  E   E     E   E   E   E   E   E   
------18--20--18--23--25--|-----|------------------------|-----------------18------|
--21----------------------|-----|--11p--8--9p--6--8p--4--|-----18--20--21------20--|
--------------------------|-----|------------------------|-------------------------|
--------------------------|-----|------------------------|-------------------------|
--------------------------|-----|------------------------|-------------------------|
--------------------------|-----|------------------------|-------------------------|


   E   E   E   E   E   E              E   E  E   E  E   E     E   E   E   E   E   E   
------18--20--18--23--25--|-------|------------------------|-----------------18------|
--21----------------------|-------|--11p--8--9p--6--8p--4--|-----18--20--21------20--|
--------------------------|-------|------------------------|-------------------------|
--------------------------|-------|------------------------|-------------------------|
--------------------------|-------|------------------------|-------------------------|
--------------------------|-------|------------------------|-------------------------|


   E   E   E   E   E   E            E   E  E   E  E   E     E   E   E   E   E   E   
------18--20--18--23--25--|-----|------------------------|-----------------18------|
--21----------------------|-----|--11p--8--9p--6--8p--4--|-----18--20--21------20--|
--------------------------|-----|------------------------|-------------------------|
--------------------------|-----|------------------------|-------------------------|
--------------------------|-----|------------------------|-------------------------|
--------------------------|-----|------------------------|-------------------------|


   E   E   E   E   E   E              E   E  E   E  E   E     E   E   E   E   E   E   
------18--20--18--23--25--|-------|------------------------|-----------------18------|
--21----------------------|-------|--11p--8--9p--6--8p--4--|-----18--20--21------20--|
--------------------------|-------|------------------------|-------------------------|
--------------------------|-------|------------------------|-------------------------|
--------------------------|-------|------------------------|-------------------------|
--------------------------|-------|------------------------|-------------------------|


   E   E   E   E   E   E            E   E  E   E  E   E     E   E   E   E   E   E   
------18--20--18--23--25--|-----|------------------------|-----------------18------|
--21----------------------|-----|--11p--8--9p--6--8p--4--|-----18--20--21------20--|
--------------------------|-----|------------------------|-------------------------|
--------------------------|-----|------------------------|-------------------------|
--------------------------|-----|------------------------|-------------------------|
--------------------------|-----|------------------------|-------------------------|


   E   E   E   E   E   E              E   E  E   E  E   E     E   E   E   E   E   E   
------18--20--18--23--25--|-------|------------------------|-----------------18------|
--21----------------------|-------|--11p--8--9p--6--8p--4--|-----18--20--21------20--|
--------------------------|-------|------------------------|-------------------------|
--------------------------|-------|------------------------|-------------------------|
--------------------------|-------|------------------------|-------------------------|
--------------------------|-------|------------------------|-------------------------|


   E   E   E   E   E   E            E   E  E   E  E   E     E   E   E   E   E   E   
------18--20--18--23--25--|-----|------------------------|-----------------18------|
--21----------------------|-----|--11p--8--9p--6--8p--4--|-----18--20--21------20--|
--------------------------|-----|------------------------|-------------------------|
--------------------------|-----|------------------------|-------------------------|
--------------------------|-----|------------------------|-------------------------|
--------------------------|-----|------------------------|-------------------------|


   E   E   E   E   E   E            E   E  E   E  E   E     E   E   E   E   E   E   
------18--20--18--23--25--|-----|------------------------|-----------------18------|
--21----------------------|-----|--11p--8--9p--6--8p--4--|-----18--20--21------20--|
--------------------------|-----|------------------------|-------------------------|
--------------------------|-----|------------------------|-------------------------|
--------------------------|-----|------------------------|-------------------------|
--------------------------|-----|------------------------|-------------------------|


   E   E   E   E   E   E            E   E  E   E  E   E     E   E   E   E   E   E   
------18--20--18--23--25--|-----|------------------------|-----------------18------|
--21----------------------|-----|--11p--8--9p--6--8p--4--|-----18--20--21------20--|
--------------------------|-----|------------------------|-------------------------|
--------------------------|-----|------------------------|-------------------------|
--------------------------|-----|------------------------|-------------------------|
--------------------------|-----|------------------------|-------------------------|


   E   E   E   E   E   E      H.               H.               H.               H.            
------18--20--18--23--25--|--13------------|---L------------|--16------------|--15------------|
--21----------------------|--13------------|---L------------|--16------------|--15------------|
--------------------------|----------------|----------------|----------------|----------------|
--------------------------|----------------|----------------|----------------|----------------|
--------------------------|----------------|----------------|----------------|----------------|
--------------------------|----------------|----------------|----------------|----------------|


                                                                       PM  PM     PM  PM        PM            
   H.              H.              H.              H.              E   E   E  E   E   E     E   E  Q    Q     
--13------------|--L------------|--L------------|--L------------|-----13--13-----13--13--|-----13------------|
--13------------|--L------------|--L------------|--L------------|-----13--13-----13--13--|-----13------------|
----------------|---------------|---------------|---------------|------------------------|-------------------|
----------------|---------------|---------------|---------------|------------------------|-------------------|
----------------|---------------|---------------|---------------|------------------------|-------------------|
----------------|---------------|---------------|---------------|------------------------|-------------------|


      PM  PM     PM  PM        PM                    PM  PM     PM  PM        PM            
  E   E   E  E   E   E     E   E   Q     Q       E   E   E  E   E   E     E   E  Q    Q     
-----13--13-----13--13--|-----13--16----16----|-----13--13-----13--13--|-----13------------|
-----13--13-----13--13--|-----13--16----16----|-----13--13-----13--13--|-----13------------|
------------------------|---------------------|------------------------|-------------------|
------------------------|---------------------|------------------------|-------------------|
------------------------|---------------------|------------------------|-------------------|
------------------------|---------------------|------------------------|-------------------|


      PM  PM     PM  PM        PM                   PM PM    PM PM               PM PM    PM PM  
  E   E   E  E   E   E     E   E   Q     Q       E  E  E  E  E  E             E  E  E  E  E  E   
-----13--13-----13--13--|-----13--16----16----|--------------------|-------|--------------------|
-----13--13-----13--13--|-----13--16----16----|-----1--1-----1--1--|-------|-----1--1-----1--1--|
------------------------|---------------------|-----1--1-----1--1--|-------|-----1--1-----1--1--|
------------------------|---------------------|--------------------|-------|--------------------|
------------------------|---------------------|--------------------|-------|--------------------|
------------------------|---------------------|--------------------|-------|--------------------|


     PM                 PM PM    PM PM                                                    PM  PM     PM  PM  
  E  E  Q    Q       E  E  E  E  E  E             Q    Q    Q       Q    Q    Q       E   E   E  E   E   E   
------------------|--------------------|-------|-----------------|-----------------|-----13--13-----13--13--|
-----1--4----4----|-----1--1-----1--1--|-------|-----------------|-----------------|-----13--13-----13--13--|
-----1--1----1----|-----1--1-----1--1--|-------|--5----8----7----|--6--------------|------------------------|
------------------|--------------------|-------|--5----5----4----|--3----6---------|------------------------|
------------------|--------------------|-------|--3----6----5----|--4----4----8----|------------------------|
------------------|--------------------|-------|-----------------|-------4----4----|------------------------|


      PM                  PM  PM     PM  PM        PM                    PM  PM     PM  PM  
  E   E  Q    Q       E   E   E  E   E   E     E   E   Q     Q       E   E   E  E   E   E   
-----13------------|-----13--13-----13--13--|-----13--16----16----|-----13--13-----13--13--|
-----13------------|-----13--13-----13--13--|-----13--16----16----|-----13--13-----13--13--|
-------------------|------------------------|---------------------|------------------------|
-------------------|------------------------|---------------------|------------------------|
-------------------|------------------------|---------------------|------------------------|
-------------------|------------------------|---------------------|------------------------|


      PM                  PM  PM     PM  PM        PM                                                
  E   E  Q    Q       E   E   E  E   E   E     E   E   Q     Q        H.               H.            
-----13------------|-----13--13-----13--13--|-----13--16----16----|----------------|----------------|
-----13------------|-----13--13-----13--13--|-----13--16----16----|--14------------|---L------------|
-------------------|------------------------|---------------------|--13------------|---L------------|
-------------------|------------------------|---------------------|--11------------|---L------------|
-------------------|------------------------|---------------------|----------------|----------------|
-------------------|------------------------|---------------------|----------------|----------------|


   H.              H.               H.              H.              H.              H.            
----------------|---------------|----------------|---------------|---------------|---------------|
--16------------|--L------------|--18------------|--L------------|--L------------|--L------------|
--15------------|--L------------|--17------------|--L------------|--L------------|--L------------|
--13------------|--L------------|--15------------|--L------------|--L------------|--L------------|
----------------|---------------|----------------|---------------|---------------|---------------|
----------------|---------------|----------------|---------------|---------------|---------------|


   H.               H.               H.              H.               H.              H.            
----------------|----------------|----------------|---------------|----------------|---------------|
--14------------|---L------------|--16------------|--L------------|--18------------|--L------------|
--13------------|---L------------|--15------------|--L------------|--17------------|--L------------|
--11------------|---L------------|--13------------|--L------------|--15------------|--L------------|
----------------|----------------|----------------|---------------|----------------|---------------|
----------------|----------------|----------------|---------------|----------------|---------------|


  H.              H.            3x
---------------|----------------||
--L------------|--L-------------||
--L------------|--L------------*||
--L------------|--L------------*||
---------------|----------------||
---------------|----------------||


Rhythm 1

                PM PM    PM PM    PM PM PM                PM PM    PM PM    PM PM PM           
             E  E  E  E  E  E     E  E  E  E  E  E     E  E  E  E  E  E     E  E  E  E  E  E   
D||-------|--------------------|--------------------|--------------------|--------------------|
A||-------|--------------------|--------------------|--------------------|--------------------|
F||-------|--------------------|--------------------|--------------------|--------------------|
C||-------|--5--5--5--5--5--5--|--5--5--5-----------|--5--5--5--5--5--5--|--5--5--5-----------|
G||-------|--5--5--5--5--5--5--|--5--5--5-----------|--5--5--5--5--5--5--|--5--5--5-----6--5--|
C||-------|--5--5--5--5--5--5--|--5--5--5--5--7--8--|--5--5--5--5--5--5--|--5--5--5--5--------|


     PM PM    PM PM    PM PM PM                PM PM    PM PM    PM PM PM                PM PM    PM PM  
  E  E  E  E  E  E     E  E  E  E  E  E     E  E  E  E  E  E     E  E  E  E  E  E     E  E  E  E  E  E   
--------------------|--------------------|--------------------|--------------------|--------------------|
--------------------|--------------------|--------------------|--------------------|--------------------|
--------------------|--------------------|--------------------|--------------------|--------------------|
--5--5--5--5--5--5--|--5--5--5-----------|--5--5--5--5--5--5--|--5--5--5-----------|--5--5--5--5--5--5--|
--5--5--5--5--5--5--|--5--5--5-----------|--5--5--5--5--5--5--|--5--5--5-----------|--5--5--5--5--5--5--|
--5--5--5--5--5--5--|--5--5--5--5--7--8--|--5--5--5--5--5--5--|--5--5--5--5--3--4--|--5--5--5--5--5--5--|


  PM PM PM                PM PM    PM PM    PM PM PM                PM PM    PM PM    PM PM PM           
  E  E  E  E  E  E     E  E  E  E  E  E     E  E  E  E  E  E     E  E  E  E  E  E     E  E  E  E  E  E   
--------------------|--------------------|--------------------|--------------------|--------------------|
--------------------|--------------------|--------------------|--------------------|--------------------|
--------------------|--------------------|--------------------|--------------------|--------------------|
--5--5--5-----------|--5--5--5--5--5--5--|--5--5--5-----------|--5--5--5--5--5--5--|--5--5--5-----------|
--5--5--5-----------|--5--5--5--5--5--5--|--5--5--5-----6--5--|--5--5--5--5--5--5--|--5--5--5-----------|
--5--5--5--5--7--8--|--5--5--5--5--5--5--|--5--5--5--5--------|--5--5--5--5--5--5--|--5--5--5--5--7--8--|


     PM PM    PM PM    PM PM PM                  PM PM    PM PM    PM PM PM                PM PM    PM PM  
  E  E  E  E  E  E     E  E  E  E  E  E       E  E  E  E  E  E     E  E  E  E  E  E     E  E  E  E  E  E   
--------------------|--------------------||---------------------|--------------------|--------------------|
--------------------|--------------------||---------------------|--------------------|--------------------|
--------------------|--------------------||*--------------------|--------------------|--------------------|
--5--5--5--5--5--5--|--5--5--5-----------||*--5--5--5--5--5--5--|--5--5--5-----------|--5--5--5--5--5--5--|
--5--5--5--5--5--5--|--5--5--5-----------||---5--5--5--5--5--5--|--5--5--5-----------|--5--5--5--5--5--5--|
--5--5--5--5--5--5--|--5--5--5--5--3--4--||---5--5--5--5--5--5--|--5--5--5--5--7--8--|--5--5--5--5--5--5--|


  PM PM PM                PM PM    PM PM    PM PM PM                PM PM    PM PM    PM PM PM           
  E  E  E  E  E  E     E  E  E  E  E  E     E  E  E  E  E  E     E  E  E  E  E  E     E  E  E  E  E  E   
--------------------|--------------------|--------------------|--------------------|--------------------|
--------------------|--------------------|--------------------|--------------------|--------------------|
--------------------|--------------------|--------------------|--------------------|--------------------|
--5--5--5-----------|--5--5--5--5--5--5--|--5--5--5-----------|--5--5--5--5--5--5--|--5--5--5-----------|
--5--5--5-----6--5--|--5--5--5--5--5--5--|--5--5--5-----------|--5--5--5--5--5--5--|--5--5--5-----------|
--5--5--5--5--------|--5--5--5--5--5--5--|--5--5--5--5--7--8--|--5--5--5--5--5--5--|--5--5--5--5--3--4--|


     PM PM    PM PM    PM PM PM                PM PM    PM PM    PM PM PM                PM PM    PM PM  
  E  E  E  E  E  E     E  E  E  E  E  E     E  E  E  E  E  E     E  E  E  E  E  E     E  E  E  E  E  E   
--------------------|--------------------|--------------------|--------------------|--------------------|
--------------------|--------------------|--------------------|--------------------|--------------------|
--------------------|--------------------|--------------------|--------------------|--------------------|
--5--5--5--5--5--5--|--5--5--5-----------|--5--5--5--5--5--5--|--5--5--5-----------|--5--5--5--5--5--5--|
--5--5--5--5--5--5--|--5--5--5-----------|--5--5--5--5--5--5--|--5--5--5-----6--5--|--5--5--5--5--5--5--|
--5--5--5--5--5--5--|--5--5--5--5--7--8--|--5--5--5--5--5--5--|--5--5--5--5--------|--5--5--5--5--5--5--|


  PM PM PM                PM PM    PM PM    PM PM PM                PM PM    PM PM    PM PM PM           
  E  E  E  E  E  E     E  E  E  E  E  E     E  E  E  E  E  E     E  E  E  E  E  E     E  E  E  E  E  E   
--------------------|--------------------|--------------------|--------------------|--------------------|
--------------------|--------------------|--------------------|--------------------|--------------------|
--------------------|--------------------|--------------------|--------------------|--------------------|
--5--5--5-----------|--5--5--5--5--5--5--|--5--5--5-----------|--5--5--5--5--5--5--|--5--5--5-----------|
--5--5--5-----------|--5--5--5--5--5--5--|--5--5--5-----------|--5--5--5--5--5--5--|--5--5--5-----------|
--5--5--5--5--7--8--|--5--5--5--5--5--5--|--5--5--5--5--3--4--|--5--5--5--5--5--5--|--5--5--5--5--7--8--|


     PM PM    PM PM    PM PM PM                PM PM    PM PM    PM PM PM                PM PM    PM PM  
  E  E  E  E  E  E     E  E  E  E  E  E     E  E  E  E  E  E     E  E  E  E  E  E     E  E  E  E  E  E   
--------------------|--------------------|--------------------|--------------------|--------------------|
--------------------|--------------------|--------------------|--------------------|--------------------|
--------------------|--------------------|--------------------|--------------------|--------------------|
--5--5--5--5--5--5--|--5--5--5-----------|--5--5--5--5--5--5--|--5--5--5-----------|--5--5--5--5--5--5--|
--5--5--5--5--5--5--|--5--5--5-----6--5--|--5--5--5--5--5--5--|--5--5--5-----------|--5--5--5--5--5--5--|
--5--5--5--5--5--5--|--5--5--5--5--------|--5--5--5--5--5--5--|--5--5--5--5--7--8--|--5--5--5--5--5--5--|


  PM PM PM                PM PM    PM PM    PM PM PM                PM PM    PM PM    PM PM PM           
  E  E  E  E  E  E     E  E  E  E  E  E     E  E  E  E  E  E     E  E  E  E  E  E     E  E  E  E  E  E   
--------------------|--------------------|--------------------|--------------------|--------------------|
--------------------|--------------------|--------------------|--------------------|--------------------|
--------------------|--------------------|--------------------|--------------------|--------------------|
--5--5--5-----------|--5--5--5--5--5--5--|--5--5--5-----------|--5--5--5--5--5--5--|--5--5--5-----------|
--5--5--5-----------|--5--5--5--5--5--5--|--5--5--5-----------|--5--5--5--5--5--5--|--5--5--5-----6--5--|
--5--5--5--5--3--4--|--5--5--5--5--5--5--|--5--5--5--5--7--8--|--5--5--5--5--5--5--|--5--5--5--5--------|


     PM PM    PM PM    PM PM PM                PM PM    PM PM    PM PM PM                PM PM    PM PM  
  E  E  E  E  E  E     E  E  E  E  E  E     E  E  E  E  E  E     E  E  E  E  E  E     E  E  E  E  E  E   
--------------------|--------------------|--------------------|--------------------|--------------------|
--------------------|--------------------|--------------------|--------------------|--------------------|
--------------------|--------------------|--------------------|--------------------|--------------------|
--5--5--5--5--5--5--|--5--5--5-----------|--5--5--5--5--5--5--|--5--5--5-----------|--5--5--5--5--5--5--|
--5--5--5--5--5--5--|--5--5--5-----------|--5--5--5--5--5--5--|--5--5--5-----------|--5--5--5--5--5--5--|
--5--5--5--5--5--5--|--5--5--5--5--7--8--|--5--5--5--5--5--5--|--5--5--5--5--3--4--|--5--5--5--5--5--5--|


  PM PM PM                PM PM    PM PM    PM PM PM                PM PM    PM PM    PM PM PM           
  E  E  E  E  E  E     E  E  E  E  E  E     E  E  E  E  E  E     E  E  E  E  E  E     E  E  E  E  E  E   
--------------------|--------------------|--------------------|--------------------|--------------------|
--------------------|--------------------|--------------------|--------------------|--------------------|
--------------------|--------------------|--------------------|--------------------|--------------------|
--5--5--5-----------|--5--5--5--5--5--5--|--5--5--5-----------|--5--5--5--5--5--5--|--5--5--5-----------|
--5--5--5-----------|--5--5--5--5--5--5--|--5--5--5-----6--5--|--5--5--5--5--5--5--|--5--5--5-----------|
--5--5--5--5--7--8--|--5--5--5--5--5--5--|--5--5--5--5--------|--5--5--5--5--5--5--|--5--5--5--5--7--8--|


     PM PM    PM PM    PM PM PM                PM PM    PM PM    PM PM PM                PM PM    PM PM  
  E  E  E  E  E  E     E  E  E  E  E  E     E  E  E  E  E  E     E  E  E  E  E  E     E  E  E  E  E  E   
--------------------|--------------------|--------------------|--------------------|--------------------|
--------------------|--------------------|--------------------|--------------------|--------------------|
--------------------|--------------------|--------------------|--------------------|--------------------|
--5--5--5--5--5--5--|--5--5--5-----------|--5--5--5--5--5--5--|--5--5--5-----------|--5--5--5--5--5--5--|
--5--5--5--5--5--5--|--5--5--5-----------|--5--5--5--5--5--5--|--5--5--5-----------|--5--5--5--5--5--5--|
--5--5--5--5--5--5--|--5--5--5--5--3--4--|--5--5--5--5--5--5--|--5--5--5--5--7--8--|--5--5--5--5--5--5--|


  PM PM PM                PM PM    PM PM    PM PM PM                PM PM    PM PM    PM PM PM           
  E  E  E  E  E  E     E  E  E  E  E  E     E  E  E  E  E  E     E  E  E  E  E  E     E  E  E  E  E  E   
--------------------|--------------------|--------------------|--------------------|--------------------|
--------------------|--------------------|--------------------|--------------------|--------------------|
--------------------|--------------------|--------------------|--------------------|--------------------|
--5--5--5-----------|--5--5--5--5--5--5--|--5--5--5-----------|--