Gametabs
Home
Tabs
Random

J-E-N-O-V-A

Average rating: 3.286

7 ratings

Composer:

Tabber:

Style:

Instrument:

Created: October 01, 2007 at 12:00 AM

            J-E-N-O-V-A
Final Fantasy VII
Composed by Nobuo Uematsu

8/18/06

From 0:17 - 1:00
e----------------------------------------------------
B----------------------------------------------------
G-----------------------------0---2------------------
D--0-----2-3----------0-2-3--------------------------
A----------------------------------------------------
E----------------------------------------------------

e----------------------------------
B---------------------------------1
G--------0-1------------0-1---3----
D--3------------------3------------
A----------------------------------
E----------------------------------

e----------------------------------------------------
B--1-----0----------1-0------------------------------
G----------2------------2----------------------------
D-----------------------------0---2------------------
A-------------------------3--------------------------
E----------------------------------------------------

e------------------------------------
B------------------------------------
G--3-----2-0----------3-2-0----------
D-----------------------------------0
A---------------------------1---3----
E------------------------------------

        
Comments

@Kieys (March 19, 2007 at 5:24 PM)

good


@Mikey D (April 27, 2007 at 12:29 AM)

You should get the rest of it, then it would be really awesome


@Jay (July 11, 2007 at 3:17 PM)

Half star


@james (October 23, 2007 at 4:03 PM)

WTF , u cant call this a tab


@Anonymous (October 23, 2007 at 7:44 PM)

You can certainly call it a tab.


@Anonymous (October 28, 2007 at 12:05 PM)

more wud still be good


@Anonymous (November 25, 2007 at 10:33 PM)

I'd like to see someone tab the WHOLE song, not just that one part. Like, the intro, I wanna see that tabbed...


@Derek (December 13, 2007 at 6:37 PM)

Sounds a tad bit like mr. Crowley :)


@cloud.j.weir (December 16, 2007 at 1:10 AM)

this tune gives me the heebies when i actually hear it and i have a song on the piano called troika or something but it sounds like this what do you think?


@Sebas (March 07, 2008 at 12:17 AM)

This is a shame to publish that. Sorry, but this is nothing compared to the real song.

Do I try to make guitar tabs? No, because they would look like this one.