Gametabs
Home
Tabs
Random

Midnight Rendez-Vous

Average rating: 5.000

2 ratings

Composer:

Tabber:

Style:

Instrument:

Created: June 07, 2020 at 12:00 AM

            Title: Midnight Rendezvous
Artist: Cecil Chau(GuitarSVD)
Music: Nobuo Uematsu, Masashi Hamauzu &
Mitsuto Suzuki
Tempo = 100
Nylon Guitar

Legend
L - tied note
x - dead note
h - hammer on/pull off
b - bend
s - slide
~ - vibrato
g - ghost note
> - accentuated note
t - trill
M - palm mute
. - staccato
P - popping (bass)
S - slapping (bass)
+ - tapping
W - wide vibrato
< - fade in
w - whammy bar
= - tremolo picking
v - brush up
^ - brush down
V - pick stroke up
n - pick stroke down

                                               
D#|--5-----------0--------5-----------0-------|
A#|--------3-----------3--------3-------------|
F#|-----------2-----0--------2----------------|
C#|-----0--------------------------0----------|
G#|-------------------------------------------|
C#|--------------------------------------0L---|

                                            
-----------5--------0-----------5----------|
-----3-----------3--------3----------------|
--2-----0-----2--------------2-----0-------|
-----------------------0-------------------|
-------------------------------------------|
--------------------------------------0----|

                                                           
-----------------------------------0----------------------|
--------3-----0-----3--------3----------------------------|
-----2-----2-----0-----0--2-----0-------------------------|
--------------------------------------4-----5--4--0L------|
----------------------------------------------------------|
--------------------------------------0-------------------|

                                            
-----------5--------0-----------5----------|
-----3-----------3--------3----------------|
--2-----0-----2--------------2-----0-------|
-----------------------0--------------0----|
-------------------------------------------|
-------------------------------------------|

                                                           
--------0-----------------------0-------------------------|
--2-------------------------------------------------------|
-----2-----0L-0--0L-0--2L-2--2-----2----------------------|
----------------------------------------------------------|
--------------------------------------4-----5--4--0L------|
----------------------------------------------------------|

                                            
--------0-----------5-----------0----------|
--3-----------3-----------3----------------|
-----------0-----2-----------2-----0-------|
-----0-----------------0-------------------|
--------------------------------------0----|
-------------------------------------------|

                                                           
-----0--------------------0--------0----------------------|
--3--------3--2-----------------3-------------------------|
--------2--------2L-2--2-----2----------------------------|
--------------------------------------5-----4--0L---------|
----------------------------------------------------------|
----------------------------------------------------------|

                                                  
--------5-----------0-----------0----------------|
-----3--------3-----------2----------------------|
--2--------------2-----0-----2-----2L------------|
-----------0--------------------------0----------|
--------------------------------------------4----|
-------------------------------------------------|

                                            
-----5--------0--------5--------0----------|
-----------3--------3--------3-------------|
--2-----2--------0--------2----------------|
-----------------------------------0-------|
--------------------------------------0----|
-------------------------------------------|

                                            
--------0--------0--------5----------------|
--------------3--------3--------3----------|
-----2-----0--------2--------------2-------|
-----------------------------0--------5----|
--------------------------------------0----|
-------------------------------------------|

                                                           
--2-----3--2-----------------------------------------0----|
--3-----0-----3-----------3-----------3-------------------|
-----------------------------2-----0-----0L-2--2----------|
-----------------------0--------0-----------------0-------|
----------------------------------------------------------|
--------------------0-------------------------------------|

                                         
-----------5--------0-----------5-------|
-----3-----------3--------3-------------|
--2-----0-----2--------------2-----0----|
-----------------------0----------------|
----------------------------------------|
----------------------------------------|

                                                           
--------------------------0-----------------------0-------|
--2-----3--2----------------------------------------------|
--------------2--------2-----------2--2--------------2----|
-----------------------------0L-0--------0L-0--0----------|
--------------------2-------------------------------------|
----------------------------------------------------------|

                                         
--------0-----------5-----------0-------|
--3-----------3-----------3-------------|
-----------0-----2-----------2-----0----|
-----0-----------------0----------------|
----------------------------------------|
----------------------------------------|

                                                           
--3-----2-----------------------------------0--------0----|
-----------3L----------3-----3--2-----------------3-------|
--------------------------2--------2L-2--2-----0----------|
----------------------------------------------------------|
--------------------0-------------------------------------|
----------------------------------------------------------|

                          ^
--------------------------5-----------0-------------------|
--3-----------2--3-----3--------3-------------------------|
--------------------2--------------2-----0L-0--0L-0-------|
-----------------------------2-----------------------0----|
----------------------------------------------------------|
----------------------------------------------------------|


-----------------0--------0--------5-------|
--------0--------------3--------3----------|
--2-----------2--------------2-------------|
-----------0--------0-----------------0----|
-------------------------------------------|
-----5-------------------------------------|


--------------0--------0--------5-------------|
-----------3--------3--------3--------3-------|
--0--------------------------------0-----2----|
-----4-----------0----------------------------|
--------------------------0-------------------|
--------5-------------------------------------|


-----------5L----------------------------------------0----|
-----3-----------------------------------------3----------|
-----------------------------0-----2L-2--2--------2-------|
-----------------------0L-0-----0-----------0-------------|
----------------------------------------------------------|
--------------------0-------------------------------------|


--5-----------------------------5--0-----------5--------0-------------------|
--------------------------3--------------3-----------3----------------------|
--------------------------------------2-----0-----2--------------2L-2--0----|
-----------------------------------------------------------0L-0-------------|
----------------------------------------------------------------------------|
----------------------------------------------------------------------------|


--3--2L---------------------------------------|
--------------5-----2-----2-----2-----5-------|
-----------2-----0-----------2-----------2----|
-----------------------2-----------2----------|
--------0-------------------------------------|
----------------------------------------------|


--2--------------0--------0-----------0-------------------|
--------------3-----3-----------3-------------------------|
-----------------------0-----2-----0-----0L-0--2L-2--0----|
----------------------------------------------------------|
----------------------------------------------------------|
----------------------------------------------------------|


--5--3L---------------------------------------|
-----------3-----3h-2-----------5-----3--5----|
--------------2--------2L-2--2-----2----------|
----------------------------------------------|
--------2-------------------------------------|
----------------------------------------------|


--3-----------0--3--------5-----------0-------------------|
-----------------------3--------3-------------------------|
--------------------2--------------2-----0L-0--2L-2--0----|
-----------------------------0----------------------------|
----------------------------------------------------------|
----------------------------------------------------------|


--2-----------------------------------0-------|
-----3L-------3-------------------------------|
-----------------0-----0L-0--0-----0-----0L---|
-----------0--------0-----------0-------------|
----------------------------------------------|
--------5-------------------------------------|


--------------------------------7--9--------0--------0--------0-------------|
--3L----------------------3-----------------------3--------3----------------|
--------------------------------------0--2-----0--------2--------0----------|
--0-------------------------------------------------------------------------|
----------------------------------------------------------------------------|
----------------------------------------------------------------------------|


--10----7-----5-----3-----0----------------|
-----10----7-----5-----3--------3----------|
-----------------------------4-----2-------|
-------------------------------------------|
-------------------------------------------|
--------------------------------------0----|


----------------------------------------------|----------||
--0-----------------0L------------------------|--0-------||
-----0L----------0--0L------------------------|--0-------||
--------------------4L------------------------|--4-------||
-----------------------------------------5L---|-----5----||
----------------------------------------------|----------||


        
Comments

No comments yet