Gametabs
Home
Tabs
Random

Promised Land

Average rating: 4.800

5 ratings

Composer:

Tabber:

Style:

Instrument:

Created: December 04, 2008 at 12:00 AM

            The Promised Land
from Final Fantasy VII: Advent Children (2005)

Nobuo Uematsu 
guitar arrangement by trickypat (derived from the oboe arr. by Arnold 
Morrison)
guitar tab by trickypat

Check the tab files above for the three midis.

version 1.02

A simple version of the Promised Land (PL), because the full version 
has often 5 keys at the same time very fast in succesion. There is an 
advanced version of PL ready, but this version is practically the 
melody with a second key to make it not sound very empty. I will post 
the advanced version when this simple version is approved on 
gametabs.net.

Text is available, but since you will play the melody, it's just for 
referencing. It is derived from youtube movies and lyrics sites.


measure 1
   |   |   |   |    |   |   |   |    |   |   |   |    |   |   |   |    
E |----------------|----------------|----------------|----------------|
B |----------------|----------------|----------------|----------------|
G |----------------|----------------|----------------|----------------|
D |----------------|----------------|----------------|----------------|
A |----------------|5---8---6---5---|--------------5-|----------------|
E |6-------8---6-8-|----------------|8-----8-8-6-8---|3---------------|
   Cur_____________ in_____ gre______mio__ haere_____ mus________?

measure 5 
   |   |   |   |    |   |   |   |    |   |   |   |    |   |   |   |    
E |----------------|----------------|----------------|----------------|
B |----------------|3---6---4---3---|--------3---4---|3---------------|
G |3-------5---3-5-|----------------|5-----5-5---5---|----------------|
D |----------------|----------------|----------------|----------------|
A |----------------|----------------|----------------|----------------|
E |----------------|----------------|----------------|----------------|
   Cur_____________ poenam_ cordi___ par___vo da______mus________?

measure 9
   |   |   |   |    |   |   |   |    |   |   |   |    |   |   |   |    
E |----------------|----------------|----------------|----------------|
B |----------------|3---4-----------|----------------|----------------|
G |--------------5-|3---5-----------|5-----5---------|----------------|
D |8-----7-5-7-8---|--------5-----8-|7-------7-------|5---------------|
A |6---------------|--------6-------|--------8---8---|----------------|
E |--------6-------|----------------|------------8---|7---------------|
   Stel__la no_bis non concessit, non_____ conces_____sit________? 

measure 13
   |   |   |   |    |   |   |   |    |   |   |   |    |   |   |   |    
E |----------------|----------------|----------------|----------------|
B |----------------|3---4-----------|----------------|----------------|
G |--------------5-|3---5-----------|5-----5---------|----------------|
D |8-----7-5-7-8-3-|--------5-----8-|7-----5-7-------|5---------------|
A |----5---6-------|--------6-----6-|--------5---8---|6---------------|
E |----------------|----------------|----------------|----------------|
   Stel__la no_bis non conces_____sit, non__ con_ces__sit________? 

measure 17
   |   |   |   |    |   |   |   |    |   |   |   |    |   |   |   |    
E |----------------|----------------|----------------|----------------|
B |----------------|----------------|----------------|----------------|
G |----------------|--------5---7---|5---------------|7---------------|
D |----------------|7---5---3---5---|3-----3-5---3---|7-------5-------|
A |----------------|----6-----------|----------------|----------------|
E |5-----5-6---5---|----------------|----------------|----------------|
   Ve____na____rum  in  ter_____ram  (in__ ter___ram)  flu____ens_ 
                    (pul____sis____) flu____________

measure 21 
   |   |   |   |    |   |   |   |    |   |   |   |    |   |   |   |    
E |----------------|----------------|3-----------5---|3---------------|
B |3-----3-4---3---|6-----------3-6-|--------------6-|----------------|
G |----------------|----------------|----------------|----------------|
D |5---------------|----------------|----------------|----------------|
A |----------------|5---------------|3---------------|----------------|
E |----------------|----------------|------------5---|3---------------|
   Par___vus, parvus pul________sus, cor________ mortem du____cens 

measure 25 
   |   |   |   |    |   |   |   |    |   |   |   |    |   |   |   |    
E |----------------|----------------|----------------|----------------|
B |----------------|3---6---4---3---|----------------|----------------|
G |3-------5---3-5-|3---------------|5-----5-5-3-5-7-|----------------|
D |5-------------7-|----------------|7---------------|5---------------|
A |----------------|----------------|----------------|5---------------|
E |----------------|----------------|----------------|----------------|
   Vi__________ta__ mol_____lis in__ stel__lam_ rede__unt_________ 

measure 29 
   |   |   |   |    |   |   |   |    |   |   |   |    |   |   |   |    
E |----------------|----------------|----------------|----------------|
B |----------------|----6-----------|----------------|----------------|
G |3-------5---3-5-|7-------8---7---|5-----5-7---8---|7---------------|
D |----------------|----------------|----------------|7-------5-------|
A |----------------|----------------|----------------|----------------|
E |3-------------5-|6---------------|5---------------|----------------|
   A_______ni__mam_ sa__cri_fi__ca___re___ neces_se__ est________? 

measure 33
   |   |   |   |    |   |   |   |    |   |   |   |    |   |   |   |    
E |----------------|----------------|----------------|----------------|
B |----------------|3---4-----------|----------------|----------------|
G |------------3-5-|3---5-----------|5-----5---------|----------------|
D |8-----7-5-7-----|--------5-----8-|7-------7-------|5---------------|
A |6---------------|--------6-------|--------8---8---|----------------|
E |--------6-------|----------------|------------8---|7---------------|
   Cur_____________ in_ gre_mio__ in gre___mio haere__mus________?

measure 37 
   |   |   |   |    |   |   |   |    |   |   |   |    |   |   |   |    
E |----------------|----------------|----------------|----------------|
B |----------------|3---4-----------|----------------|----------------|
G |------------3-5-|3---5-----------|5-----5---------|----------------|
D |8-----7-5-7---3-|--------5-----8-|7-----5-7-------|5-------5-------|
A |----5---6-------|--------6-----6-|--------5---8---|6-------6-------|
E |----------------|----------------|----------------|----------------|
   Cur_____________ ve__niam petimus? In__ terra fa___ta______li_?


For questions or remarks, feel free to mail me at 
[email protected] without the couple of triple dots.
Since I do not frequently check my mail (maybe once each two weeks) 
and my spam-filter is relentless, do not get angry and try again at 
a later date. 
Enjoy this tab,


trickypat



Created with TablEdit http://www.tabledit.com/

        
Comments

@river (March 13, 2010 at 12:18 PM)

nice, I am not so good and I can play it slowly, but I play ^^


@river (March 14, 2010 at 9:01 AM)

Thanks for this tipp. I will do it


@musenji (October 28, 2014 at 3:26 AM)

Very nice!