Gametabs
Home
Tabs
Random

What??

Average rating: 5.000

2 ratings

Composer:

Tabber:

Style:

Instrument:

Created: May 23, 2008 at 12:00 AM

            Final Fantasy VI - "????"
composed by Nobuo Uematsu
tabbed by Resiphiodate

    
    E  E  E  E  Q    Q      Q    Q    Q    E  E    Q    Q    Q    Q
E||-----------------------|----------------------|---------------------|
B||-6--6--6--6-------6----|------6---------6-----|------4----4---------|
G||-5--5--5--5--3----5----|-3----5----3----5--3--|-2----4----4----0----|
D||-------------4---------|-4---------4-------4--|-3--------------1----|
A||-----------------------|----------------------|---------------------|
E||-----------------------|----------------------|---------------------|

  W                     Q    Q    Q    Q      W
|---------------------|---------------------|---------------------|
|-2-------------------|------4----4---------|-2-------------------|
|-2-------------------|-2----4----4----0----|-2-------------------|
|---------------------|-3--------------1----|---------------------|
|---------------------|---------------------|---------------------|
|---------------------|---------------------|---------------------|

  E  E  E  E  E    Q      Q    Q    Q    E  E    Q    Q    Q    Q
|-----------------------|----------------------|---------------------|
|-4--4--4--4-------4----|------4---------4-----|------2----2---------|
|-3--3--3--3--1----3----|-1----3----1----3--1--|-0----2----2---------|
|-------------2---------|-2---------2-------2--|-1--------------3----|
|-----------------------|----------------------|----------------4----|
|-----------------------|----------------------|---------------------|

  W                     Q    Q    Q    Q      W
|---------------------|---------------------|---------------------|
|-0-------------------|------2----2---------|-0-------------------|
|-0-------------------|-0----2----2---------|-0-------------------|
|---------------------|-1--------------3----|---------------------|
|---------------------|----------------4----|---------------------|
|---------------------|---------------------|---------------------|

  R    E  E  Q    Q      Q    E  E  Q    Q      Q    Q    Q    Q
|----------------------|----------------------|---------------------|
|------0--0--0----0----|-0----0--0--0----0----|-----------6----5----|
|----------------------|----------------------|-----------6----5----|
|------9--8--7----6----|-5----5--6--5----4----|-3----2--------------|
|------10-9--8----7----|-6----6--7--6----5----|-4----3--------------|
|----------------------|----------------------|---------------------|

  Q    Q    R    R      Q    Q    Q    Q      Q    Q    R    R
|---------------------|---------------------|---------------------|
|---------------------|-----------5----4----|---------------------|
|---------------------|-----------5----4----|---------------------|
|-3----2--------------|-2----1--------------|-2----1--------------|
|-4----3--------------|-3----2--------------|-3----2--------------|
|---------------------|---------------------|---------------------|

  Q    E  E  Q    Q      Q    E  E  Q    Q      Q    Q    Q    Q
|----------------------|----------------------|---------------------|
|----------------------|------------0----2----|-4----2----4----2----|
|-----------------2----|-0----0--2--0----2----|-4----2----4----2----|
|-1----1--2--4----4----|-2----2--4------------|---------------------|
|-2----2--4--6---------|----------------------|---------------------|
|----------------------|----------------------|---------------------|

  Q    Q    Q    Q      R    R    R    R      R    R    R    R    
|---------------------|---------------------|---------------------|
|-4----2----4----2----|---------------------|---------------------|
|-4----2----4----2----|---------------------|--------------------*|
|---------------------|---------------------|---------------------|
|---------------------|---------------------|--------------------*|
|---------------------|---------------------|---------------------|

        
Comments

@OrangeNova (May 23, 2008 at 4:40 PM)

Isn't it just ???? not What??


@Shade (May 23, 2008 at 5:15 PM)

I'm nto sure the name of this song and i used to have the 3 disc OST and everything...its making me nuts not knowing the name. I had to save it as What because you can't save a file on a computer with just a ???. I know theres a proper name for this song and i just cant find a correct track listing.


@Resiphiodate (May 23, 2008 at 9:26 PM)

I tabbed this from my piano sheet music where it is simply listed as "??", and on the amazon page for the FFVI OST this track is listed as "????".


@Dandy_Sephy (May 24, 2008 at 5:37 AM)

The Japanese Title is the kana for "n" followed by ?? The official Squaresoft translation given in the Liner notes for the ost is ??, but What? is a sensible title, and one the community has long adopted.

My view is that the curious title comes from it being a sound, rather then a word. It's difficult for me to explain, but you can probably try this for yourself. It's a bit like "huh"


@musenji (October 17, 2014 at 11:27 AM)

Haaaahahahahhahahhaha

This is SO FUN!

I thought before reading, "Okay well, we'll see if this is any good"

and I sightread the whole thing, laughing almost the WHOLE way through.

Can't wait to record it!