Gametabs
Home
Tabs
Random

Wedding Waltz - Duel

Average rating: No ratings

Composer:

Tabber:

Style:

Instrument:

Created: June 25, 2010 at 12:00 AM

            Song: The Wedding Waltz - Duel
Game: Final Fantasy VI
Composer: Nobuo Uematsu
Tabbed by: Daugreano


Guitar: 
   
   H.       H.       Q    Q    Q      H.       Q    Q    Q      Q    Q    Q      H.
E|--------|--------|----------------|--------|----------------|----------------|--------|
B|--------|--------|----------------|--------|----------------|----------------|--------|
G|--------|--------|----------------|--------|----------------|-----------1----|-2------|
D|-2------|-1------|-----------2----|-1------|-----------1----|-2----4---------|--------|
A|--------|--------|-2----4---------|--------|-2----4---------|----------------|--------|
E|--------|--------|----------------|--------|----------------|----------------|--------|

   H.       H.       H.       Q    Q    Q      H.       Q    Q    Q      Q    Q    Q
E|--------|--------|--------|----------------|--------|----------------|----------------|
B|--------|--------|--------|----------------|--------|----------------|----------------|
G|--------|--------|--------|----------------|--------|----------------|-----------0----|
D|--------|-4------|-3------|------2----4----|-1------|-----------1----|-2----4---------|
A|--------|--------|--------|-4--------------|--------|-2----4---------|----------------|
E|--------|--------|--------|----------------|--------|----------------|----------------|

   Q    Q    Q      Q    Q    Q      H.       H.       Q    Q    Q      H.       Q    Q    Q
E|----------------|----------------|--------|--------|----------------|--------|----------------|
B|------4----2----|-2----1----0----|--------|--------|----------------|--------|----------------|
G|-1--------------|----------------|--------|--------|----------------|--------|----------------|
D|----------------|----------------|-2------|-1------|-----------2----|-1------|-----------1----|
A|----------------|----------------|--------|--------|-2----4---------|--------|-2----4---------|
E|----------------|----------------|--------|--------|----------------|--------|----------------|

   Q    Q    Q      H.       H.       E   E   E   E   E   E     Q    Q    Q      E   E   E   E   E   E
E|----------------|--------|--------|-------------------------|----------------|-------------------------|
B|-----------0----|-2------|--------|-------------0-----------|----------------|-------------------------|
G|------1---------|--------|--------|-2---1---2-------2-------|-1--------------|-------------1-----------|
D|-2--------------|--------|--------|---------------------3---|------4---------|-4---3---4-------4-------|
A|----------------|--------|--------|-------------------------|----------------|---------------------4---|
E|----------------|--------|--------|-------------------------|----------------|-------------------------|

   Q    H           Q    Q    Q      Q.       E   E   E
E|----------------|----------------|----------------------|
B|----------------|------0---------|----------------------|
G|----------------|-----------2----|-1--------------------|
D|-2----1---------|----------------|------------------1---|
A|----------------|-2--------------|----------2---4-------|
E|----------------|----------------|----------------------|




        
Comments

No comments yet