Gametabs
Home
Tabs
Random

Victory Fanfare

Average rating: 4.000

5 ratings

Composer:

Tabber:

Style:

Instrument:

Created: March 07, 2012 at 12:00 AM

                                                   Victory Fanfare
                                      Final Fantasy VI 
                                   Composed  by Nobuo Uematsu 
                           Tabbed by the Ripper with help from hslesperance
     |--3--|                    |--3--|                
     E  E  E  Q    Q    Q       E  E  E  H.            
E||--------------------------|------------------------|
B||--3--3--3--3---------1----|--3-----1--3------------|
G||----------------3---------|------------------------|
D||-----------3---------2----|--3-----2--4------------|
A||---------------------3----|--5-----3--5------------|
E||----------------3---------|------------------------|


    Q    Q    Q    E   E      E   E  Q    E  E  E  E     Q    Q    Q    E  E   
|---5----3----5----3---8--|---L------7----8--7--3--7--|--5----3---------3--0--|
|-------------------------|----------0-------0-----0--|------------7----------|
|*--2----0----2----0------|---------------5-----0--0--|--2----0---------0-----|
|*--0----0----0----0--10--|---L--10--0-------0--------|--0----0----4----0--2--|
|----------------------8--|---L-----------7-----3-----|------------5-------0--|
|----------------------8--|---L------7----------------|-----------------------|


  E  E  E  E  E  E  E  E     Q    Q    Q    E   E      E   E  Q    E  E  E  E   
--------------------------|--5----3----5----3---8--|---L------7----8--7--3--7--|
--------------------------|------------------------|----------0-------0-----0--|
-----2-----2-----2-----2--|--2----0----2----0------|---------------5-----0--0--|
--L-----------------2-----|--0----0----0----0--10--|---L--10--0-------0--------|
--L-----2-----3-----------|---------------------8--|---L-----------7-----3-----|
--------------------------|---------------------8--|---L------7----------------|


  Q    Q    Q     E   E     E  E  E  E  E  E  E  E   3x                         
--5----3----5-----8--10--|--L--------------------1---||
-------------------------|-----------1-----3---------||
--2----0----2---------7--|--L--3--------------------*||
--0----0----0----10------|--------------0-----3-----*||
-------------------------|--------3------------------||
------------------8---6--|--L------------------------||
                            
                            Easy Way to play it.

     |--3--|                    |--3--|                
     E  E  E  Q    Q    Q       E  E  E  H.            
E||--------------------------|------------------------|
B||--3--3--3--3---------1----|--3-----1--3------------|
G||----------------3---------|------------------------|
D||-----------3---------2----|--3-----2--4------------|
A||---------------------3----|--5-----3--5------------|
E||----------------3---------|------------------------|


    Q    Q    Q    E  E     E  E  Q    E  E  E  E     Q    Q    Q    E  E   
|------------------------|-------------------------|-----------------------|
|---------------------1--|--L--1--0----1--0-----0--|-----------------------|
|*--2----0----2----0-----|-------------------0--0--|--2----0---------0-----|
|*--0----0----0----0--3--|--L-----0----2--0--------|--0----0----4----0--2--|
|---------------------3--|--------2----------3-----|------------5-------0--|
|------------------------|-------------------------|-----------------------|


  E  E  E  E  E  E  E  E     Q    Q    Q    E  E     E  E  Q    E  E  E  E   
--------------------------|-----------------------|-------------------------|
--------------------------|--------------------1--|--L--1--0----1--0-----0--|
-----2-----2-----2-----2--|--2----0----2----0-----|-------------------0--0--|
--L-----------------2-----|--0----0----0----0--3--|--L-----0----2--0--------|
--L-----2-----3-----------|--------------------3--|--------2----------3-----|
--------------------------|-----------------------|-------------------------|


  Q    Q    Q    E  E     E  E  E  E  E  E  E  E   3x                         
-----------------------|-----------------------1---||
-----------------1--3--|--L--------1-----3---------||
--2----0----2----------|-----3--------------------*||
--0----0----0----------|--------------0-----3-----*||
-----------------3--1--|--L-----3------------------||
-----------------------|---------------------------||

        
Comments

@MechaKrauser (November 29, 2016 at 7:41 PM)

Just what I was looking for! :3