Gametabs
Home
Tabs
Random

The Veldt

Average rating: 4.250

4 ratings

Composer:

Tabber:

Style:

Instrument:

Created: February 04, 2009 at 12:00 AM

            Game: Final Fantasy VI
Song: The Veldt (Wild West)
Composed by: Nobuo Uematsu
Tabbed by: Not So Great Juja (Paul Horses)

Key:
~ = vibrato
p = pull-off
h = hammer-on
/ = slide
pm = palm-mute
tr = tremolo picking

Any questions or comments -
please, E-mail me at: [email protected]


e|---------------------------------------------------------------|
B|---------------------------------------------------------------|
G|--------------------------------------------------------4------|
D|-2~---0h2h3~---2p0-2---------------2~---0h2h3~---5p3p2---------| x2
A|----------------------2----------------------------------------|
E|---------------------------------------------------------------|


==================================================================


e|-------------------------------------10p9-|
B|--------------------10p9------------------|
G|-11~--11-10h11~--11------11p10-11---------|
D|----------------------------------11------|
A|------------------------------------------|
E|------------------------------------------|



e|-------------------------------------------------|
B|--------------------10p9-------------------------|
G|-11~--11-10h11~--11------11p10-11----------------|
D|----------------------------------11h12-15p12p11-|
A|-------------------------------------------------|
E|-------------------------------------------------|



e|-------------------------------------10p9-|
B|--------------------10p9------------------|
G|-11~--11-10h11~--11------11p10-11---------|
D|----------------------------------11------|
A|------------------------------------------|
E|------------------------------------------|



e|------------------------------------|
B|--------------------10p9------------|
G|-11~--11-10h11~--11------11p10-11~--|
D|------------------------------------|
A|------------------------------------|
E|------------------------------------|


=========================================================


e|------------10-9~---------------------------------------|
B|-12~-12~-12------------12~-12~-12-10p9-10p9-------------|
G|--------------------------------------------11p10-11----|
D|-----------------------------------------------------11-|
A|--------------------------------------------------------|
E|--------------------------------------------------------|



e|------------10-9~--------------------------------------|
B|-12~-12~-12------------12~-12~-12-10p9-10p9------------|
G|--------------------------------------------11p10-11~--|
D|-------------------------------------------------------|
A|-------------------------------------------------------|
E|-------------------------------------------------------|

        
Comments

@laoise (March 14, 2009 at 11:17 PM)

Here, This Is Pretty Good


@Ranulf (September 08, 2010 at 12:09 AM)

Tabbed by: The Great Juja