Gametabs
Home
Tabs
Random

The Decisive Battle

Average rating: 3.000

5 ratings

Composer:

Tabber:

Style:

Instrument:

Created: August 22, 2008 at 12:00 AM

            The Decisive Battle
Final Fantasy VI


Guitar I

     T T     T T     T T     T T    T T T T  
      
E||-----------------------------------------|
B||-----------------------------------------|
G||--9-5p-2-10-5p-2-11-5p-2-10-5p-2-9-5-4-8-|
D||-----------------------------------------|
A||-----------------------------------------|
E||-----------------------------------------|


  T T     T T     T T     T T    T T T T  
    
-----------------------------------------|
-----------------------------------------|
--9-5p-2-10-5p-2-11-5p-2-10-5p-2-9-5-4-8-|
-----------------------------------------|
-----------------------------------------|
-----------------------------------------|


  T T     T T     T T     T T    T T T T  
     
-----------------------------------------|
-----------------------------------------|
--9-5p-2-10-5p-2-11-5p-2-10-5p-2-9-5-4-8-|
-----------------------------------------|
-----------------------------------------|
-----------------------------------------|


  T T     T T     T T     T T    T T T T  
     
-----------------------------------------|
-----------------------------------------|
--9-5p-2-10-5p-2-11-5p-2-10-5p-2-9-5-4-8-|
-----------------------------------------|
-----------------------------------------|
-----------------------------------------|


                     
--------12--10--------------10----------|---------------------|
--10-10--------13p--12h--13-----12------|--10~----------------|
------------------------------------12--|---------------------|
----------------------------------------|---------------------|
----------------------------------------|---------------------|
----------------------------------------|---------------------|

                   
--------12--10------------10----------|---------------------|
--10-10--------13--12--13-----12------|--10~----------------|
----------------------------------12--|---------------------|
--------------------------------------|---------------------|
--------------------------------------|---------------------|
--------------------------------------|---------------------|


    
-------------------|---------------------------------------------|
-------------------|----10-12h-13p-12-10-------------------------|
-------------------|--9------------------9---------------5p-4h-5-|
-------------------|-----------------------10p-9--10p-7----------|
-------------------|---------------------------------------------|
-------------------|---------------------------------------------|


     
------------------------5-------|--5---8-7-5------------------------|
-----5----5---5-6-----6-----9---|----5-------5----------------------|
--7----5----7-----4-5-----7---7-|--------------5---4h--5----5p-4h-5-|
--------------------------------|----------------7-------7----------|
--------------------------------|-----------------------------------|
--------------------------------|-----------------------------------|


      
----------------------------8-5p-4-|--13~--------------------10--|
-----5----5---5h-6---8p-5-6--------|-----------13--12---13-------|
--7----5----7------7---------------|-----------------------------|
-----------------------------------|-----------------------------|
-----------------------------------|-----------------------------|
-----------------------------------|-----------------------------|


       
--12---10---12------10------------------|------13---------------------|
----------------13-----13-12-13p-12p-10-|--L--------13--12---10-------|
----------------------------------------|-------------------------12--|
----------------------------------------|-----------------------------|
----------------------------------------|-----------------------------|
----------------------------------------|-----------------------------|


     
------------------------12--|--13~--------------------10--|
--10~--------L--12--13------|-----------13--12---13-------|
----------------------------|-----------------------------|
----------------------------|-----------------------------|
----------------------------|-----------------------------|
----------------------------|-----------------------------|


      
--12---13---15--14---15---17--|--/20~----------17-15-13-------------|
------------------------------|-------------------------13----------|
------------------------------|----------------------------14-12-10-|
------------------------------|-------------------------------------|
------------------------------|-------------------------------------|
------------------------------|-------------------------------------|

    
---------------------|----------------------13-------|
---------------------|-------15--------15--------15--|
---------------------|--16--------/16----------------|
--10~----------------|-------------------------------|
---------------------|-------------------------------|
---------------------|-------------------------------|


        
|---12---15---12----13-12-11-10-9-8-7-|
|-------------------------------------|
|*------------------------------------|
|*------------------------------------|
|-------------------------------------|
|-------------------------------------|


  T T     T T     T T     T T    T T T T  
   
-----------------------------------------|
-----------------------------------------|
--9-5p-2-10-5p-2-11-5p-2-10-5p-2-9-5-4-8-|
-----------------------------------------|
-----------------------------------------|
-----------------------------------------|


  T T     T T     T T     T T    T T T T  
    
-----------------------------------------|
-----------------------------------------|
--9-5p-2-10-5p-2-11-5p-2-10-5p-2-9-5-4-8-|
-----------------------------------------|
-----------------------------------------|
-----------------------------------------|


  T T     T T     T T     T T    T T T T  
     
-----------------------------------------|
-----------------------------------------|
--9-5p-2-10-5p-2-11-5p-2-10-5p-2-9-5-4-8-|
-----------------------------------------|
-----------------------------------------|
-----------------------------------------|


  T T     T T     T T     T T    T T T T  
     
-----------------------------------------|
-----------------------------------------|
--9-5p-2-10-5p-2-11-5p-2-10-5p-2-9-5-4-8-|
-----------------------------------------|
-----------------------------------------|
-----------------------------------------|


                      
--------12--10------------10----------|---------------------|
--10-10--------13--12--13-----12------|--10~----------------|
----------------------------------12--|---------------------|
--------------------------------------|---------------------|
--------------------------------------|---------------------|
--------------------------------------|---------------------|


                      
--------12--10------------10----------|---------------------|
--10-10--------13--12--13-----12------|--10~----------------|
----------------------------------12--|---------------------|
--------------------------------------|---------------------|
--------------------------------------|---------------------|
--------------------------------------|---------------------|


    
-------------------|---------------------------------------------|
-------------------|----10-12h-13p-12-10-------------------------|
-------------------|--9------------------9---------------5p-4h-5-|
-------------------|-----------------------10p-9--10p-7----------|
-------------------|---------------------------------------------|
-------------------|---------------------------------------------|


    
------------------------5-------|--5---8-7-5------------------------|
-----5----5---5-6-----6-----9---|----5-------5----------------------|
--7----5----7-----4-5-----7---7-|--------------5---4h--5----5p-4h-5-|
--------------------------------|----------------7-------7----------|
--------------------------------|-----------------------------------|
--------------------------------|-----------------------------------|


      
----------------------------8-5p-4-|--13~--------------------10--|
-----5----5---5h-6---8p-5-6--------|-----------13--12---13-------|
--7----5----7------7---------------|-----------------------------|
-----------------------------------|-----------------------------|
-----------------------------------|-----------------------------|
-----------------------------------|-----------------------------|


       
--12---10---12------10----------------|------13---------------------|
----------------13-----13-12-13-12-10-|--L--------13--12---10-------|
--------------------------------------|-------------------------12--|
--------------------------------------|-----------------------------|
--------------------------------------|-----------------------------|
--------------------------------------|-----------------------------|


       
------------------------12--|--13~--------------------10--|
--10~--------L--12--13------|-----------13--12---13-------|
----------------------------|-----------------------------|
----------------------------|-----------------------------|
----------------------------|-----------------------------|
----------------------------|-----------------------------|


      
--12---13---15--14---15---17--|--/20~----------17-15-13-------------|
------------------------------|-------------------------13----------|
------------------------------|----------------------------14-12-10-|
------------------------------|-------------------------------------|
------------------------------|-------------------------------------|
------------------------------|-------------------------------------|


         
---------------------|----------------------13--------||
---------------------|-------15--------15--------15---||
---------------------|--16--------/16----------------*||
--10~----------------|-------------------------------*||
---------------------|--------------------------------||
---------------------|--------------------------------||


   E.   E.   E  S  S  S  S  S S S S   
--12---15---12----13-12-11-10-9-8-7-||
------------------------------------||
------------------------------------||
------------------------------------||
------------------------------------||
------------------------------------||




Guitar II

E||---------------------|----------------------|----------------------------|
B||---------------------|----------------------|----------------------------|
G||--2------------L-----|--2----2------------L-|--2----2----2----2----2-----|
D||--2------------L-----|--2----2------------L-|--2----2----2----2----2--5--|
A||--0------------L-----|--0----0------------L-|--0----0----0----0----0--5--|
E||---------------------|----------------------|-------------------------3--|


              
----------------------------|----------------------|-------------------|
----------------------------|----------------------|-------------------|
--2----2----2----2----2-----|----------------------|--2----------------|
--2----2----2----2----2--5--|--3----5---2--------L-|--2----------------|
--0----0----0----0----0--5--|--3----5--------------|--0----------------|
-------------------------3--|--1----3---0--------L-|-------------------|


               
----------------------|-------------------|-------------------|
----------------------|-------------------|-------------------|
----------------------|--2----------------|-------------------|
--3----5---2--------L-|--2----------------|-------------------|
--3----5--------------|--0----------------|-------------------|
--1----3---0--------L-|-------------------|-------------------|


   
----------------------------|----------------------------|
----------------------------|----------------------------|
--2----2----2----2----2-----|----------------------2-----|
--2----2----2----2----2--5--|--3----3----5----3----2--6--|
--0----0----0----0----0--5--|--3----3----5----3----0--6--|
-------------------------3--|--1----1----3----1-------4--|


  
----------------------------|----------------------------|
----------------------------|----------------------------|
--2----2----2----2----2-----|----------------------2-----|
--2----2----2----2----2--5--|--3----3----5----3----2--6--|
--0----0----0----0----0--5--|--3----3----5----3----0--6--|
-------------------------3--|--1----1----3----1-------4--|


                PM            PM                                        
            
-----------------------|------------------------|----------------------|
-----------------------|------------------------|----------------------|
-----------------------|-------------5----4---2-|--L-------------------|
--3------4--5-------5--|--2-------2--5----4---2-|--L-------------------|
--3------4--5---5---5--|--x---5---x--3----2---0-|--L------1--2~--------|
--1------2--3-------3--|--0-------0-------------|----------------------|


  PM PM PM PM PM PM PM PM PM PM PM                  PM      
   
-----------------------------------|-----------------------|
-----------------------------------|-----------------------|
--2--2--2--2--2--2--2--2--2--2--2--|-----------------------|
--2--2--2--2--2--2--2--2--2--2--2--|--3------4--5-------5--|
--0--0--0--0--0--0--0--0--0--0--0--|--3------4--5---5---5--|
-----------------------------------|--1------2--3-------3--|


      PM     PM            PM PM PM PM PM PM PM PM PM PM PM  
   
------------------------|-----------------------------------|
------------------------|-----------------------------------|
--5---------------------|-----------------------------------|
--5-------2------2---4--|--3--3--3--3--3--3--3--3--3--3--3--|
--3---5---x--5---x---4--|--3--3--3--3--3--3--3--3--3--3--3--|
----------0------0---2--|--1--1--1--1--1--1--1--1--1--1--1--|


  PM PM PM PM PM PM PM PM PM PM PM                                            
            
-----------------------------------|-------------------||--------------------|
-----------------------------------|-------------------||--------------------|
-----------------------------------|-------------------||*-------------------|
--4--4--4--4--4--4--4--4--4--4--4--|-------------------||*-------------------|
--3--3--3--3--3--3--3--3--3--3--3--|-------------------||--------------------|
--2--2--2--2--2--2--2--2--2--2--2--|-------------------||--------------------|


   
---------------------|----------------------|----------------------------|
---------------------|----------------------|----------------------------|
--2------------L-----|--2----2------------L-|--2----2----2----2----2-----|
--2------------L-----|--2----2------------L-|--2----2----2----2----2--5--|
--0------------L-----|--0----0------------L-|--0----0----0----0----0--5--|
---------------------|----------------------|-------------------------3--|


                 
----------------------------|----------------------|-------------------|
----------------------------|----------------------|-------------------|
--2----2----2----2----2-----|----------------------|--2----------------|
--2----2----2----2----2--5--|--3----5---2--------L-|--2----------------|
--0----0----0----0----0--5--|--3----5---2--------L-|--0----------------|
-------------------------3--|--1----3---0--------L-|-------------------|


                 
----------------------|-------------------|-------------------|
----------------------|-------------------|-------------------|
----------------------|--2----------------|-------------------|
--3----5---2--------L-|--2----------------|-------------------|
--3----5---2--------L-|--0----------------|-------------------|
--1----3---0--------L-|-------------------|-------------------|


     
----------------------------|----------------------------|
----------------------------|----------------------------|
--2----2----2----2----2-----|----------------------2-----|
--2----2----2----2----2--5--|--3----3----5----3----2--6--|
--0----0----0----0----0--5--|--3----3----5----3----0--6--|
-------------------------3--|--1----1----3----1-------4--|


     
----------------------------|----------------------------|
----------------------------|----------------------------|
--2----2----2----2----2-----|----------------------2-----|
--2----2----2----2----2--5--|--3----3----5----3----2--6--|
--0----0----0----0----0--5--|--3----3----5----3----0--6--|
-------------------------3--|--1----1----3----1-------4--|


                PM            PM                                        
            
-----------------------|------------------------|----------------------|
-----------------------|------------------------|----------------------|
-----------------------|-------------5----4---2-|--L-------------------|
--3------4--5-------5--|--2-------2--5----4---2-|--L-------------------|
--3------4--5---5---5--|------5------3----2---0-|--L------1--2~--------|
--1------2--3-------3--|--0-------0-------------|----------------------|


  PM PM PM PM PM PM PM PM PM PM PM                  PM      
   
-----------------------------------|-----------------------|
-----------------------------------|-----------------------|
--2--2--2--2--2--2--2--2--2--2--2--|-----------------------|
--2--2--2--2--2--2--2--2--2--2--2--|--3------4--5-------5--|
--0--0--0--0--0--0--0--0--0--0--0--|--3------4--5---5---5--|
-----------------------------------|--1------2--3-------3--|


      PM     PM            PM PM PM PM PM PM PM PM PM PM PM  
   
------------------------|-----------------------------------|
------------------------|-----------------------------------|
--5---------------------|-----------------------------------|
--5-------2------2---4--|--3--3--3--3--3--3--3--3--3--3--3--|
--3---5---x--5---x---4--|--3--3--3--3--3--3--3--3--3--3--3--|
----------0------0---2--|--1--1--1--1--1--1--1--1--1--1--1--|


  PM PM PM PM PM PM PM PM PM PM PM                                             
                   
-----------------------------------|--------------------||-------------------||
-----------------------------------|--------------------||-------------------||
-----------------------------------|-------------------*||-------------------||
--4--4--4--4--4--4--4--4--4--4--4--|-------------------*||-------------------||
--3--3--3--3--3--3--3--3--3--3--3--|--------------------||-------------------||
--2--2--2--2--2--2--2--2--2--2--2--|--------------------||-------------------||

        
Comments

No comments yet