Gametabs
Home
Tabs
Random

The Decisive Battle

Average rating: 4.938

16 ratings

Composer:

Tabber:

Style:

Instrument:

Created: July 06, 2008 at 12:00 AM

                                          The Decisive Battle                               

Composed by Nobuo Uematsu
Arranged by Marcus Kasperski
Standard Tuning

Moderato

     S S S S S S S S S S S S S S S S    S S S S S S S S S S S S S S S S  
E||--0-----1-----2-----1-----0-------|--0-----1-----2-----1-----0-------|
B||----1-----1-----1-----1-----1-0-3-|----1-----1-----1-----1-----1-0-3-|
G||------2-----2-----2-----2---------|------2-----2-----2-----2---------|
D||----------------------------------|----------------------------------|
A||--0-------------------------------|--0-----0-----------------------L-|
E||----------------------------------|----------------------------------|


  S S S S S S S S S S S S S S S S    S S S S S S S S S S S S S S S S  
--0-----1-----2-----1-----0-------|--0-----1-----2-----1-----0-------|
----1-----1-----1-----1-----1-0-3-|----1-----1-----1-----1-----1-0-3-|
------2-----2-----2-----2---------|------2-----2-----2-----2---------|
----------------------------------|----------------------------------|
--0-----0-----0-----0-----0-------|--0-----0-----0-----0-----0-------|
------------------------------3---|------------------------------3---|


  E  E  S E  E  S E  E  E     Q    Q    Q    Q       E  E  S E  E  S E  E  E   
---------------------------|----------------------|---------------------------|
-----5--3-1--0--1-3--0-----|----------------------|-----5--3-1--0--1-3--0-----|
--2--5--4-2--0--2-4--0-----|--2-------------------|--2--5--4-2--0--2-4--0-----|
--3---------------------2--|--2--------------2----|--3---------------------2--|
---------------------------|--0----2----3---------|---------------------------|
--1-----3----3-------0-----|----------------------|--1-----3----3-------0-----|


  E  S E  S E  S E  S E  E     S S S S S S S S S S S S E  E   
----------------------------|--------------------------------|
----------------------------|--------------------------------|
--2----2----2----2----2--0--|--2-----2-----2-----2-----2--0--|
--2----2----2----2----2--0--|--2-----2-----2-----2-----2--0--|
--0----0----0----0----0-----|--0-0-0-0-0-0-0-0-0-0-0-0-0-----|
-------------------------3--|-----------------------------3--|


  S S S S S S S S S S S S S S S S    E  S E  S S S S S S S S S S S  
--0-5-7-8-7-5---------------------|-----0----0---0-1-----0-5---4---|
--------------5---0---1-----1-0-1-|--3----1----3-----0-1-----5---5-|
----------------5-------2---------|--------------------------------|
----------------------------------|--------------------------------|
--0-----0-----0-----0-----0-------|--------------------------------|
------------------------------3---|--1----1----1-----1-----0---0---|


  S S S S S S S S S S S S S S S S    E  S E  S S S S S S S S S S S  
--5---8-7-5-----------------------|-----0----0---0-1-------------0-|
----5-------5-----0---1-----1-0-1-|--3----1----3-------------0-1---|
--------------5-2-------2---------|------------------------2-------|
----------------------------------|----------------------2---------|
--0-----0-----0-----0-----0-------|------------------2-3---0---3---|
------------------------------3---|--1----1----1-------------------|


  Q.     E  E.  E.  E     E.  E.  E  E  S S Q       E.  E.  E  E.  E.  E   
--1--------------------|--0---1---3--------------|------1-----------------|
--1------1--0---1---3--|-------------1--3-1-0----|------1---1--0----------|
--2---------0----------|--0----------0------0----|--2---2----------2---0--|
---------4------0------|------0---2--2------0----|--3-------4-------------|
--------------------2--|--3----------3------2----|--0----------2---0------|
--1---------3----------|-------------------------|------1------3-------3--|


  E  E  E  E  E  E  E  E     Q.     E  E.  E.  E     E.  E.  E  E.  E.  E   
-----------------------0--|--1--------------------|--0---1---3--2---3---5--|
-----------------0--1-----|--1------1--0---1---3--|------------------------|
--2--------0--------------|--2---------0----------|--0---------------------|
--0-----0-----4-----------|---------4------0------|------0---2--0---2---4--|
--0--0--------------------|--------------------2--|--3---------------------|
--------------------------|--1---------3----------|------------------------|


  H        S S S S S S S S    H        S S S S S S S S  
--8----------5-------------|---------------------------|
---------------8-6---------|---------------------------|
-------------------5-------|---------------------------|
--7------------------7-5---|-------------------------2-|
--8----------------------8-|-------------0-0-0-3-0-3---|
---------------------------|--8------------------------|


  E.  E.  E  E.  E.  E     E.  E.  E  S S S S S S S S      W                  
-----------------1------|--0---3---0----1-0------------||-------------------||
--0---3---0--3---3---3--|--1---1---1--------3-1-0------||-------------------||
--0---0---0--0---0---0--|--0----------------------2-1-*||--2----------------||
--0---0---0--0-------0--|-----------------------------*||--2----------------||
-------------2----------|--3---------------------------||--0----------------||
--3---------------------|------------------------------||-------------------||




Duration Legend
---------------
W - whole
H - half
Q - quarter
E - 8th
S - 16th
T - 32nd
X - 64th
. - note dotted
|-n-|  - n-tuplets


Tablature Legend
----------------
L - tied note
x - dead note
g - grace note
(n) - ghost note
> - accentuded note
NH - natural harmonic
AH - artificial harmonic
TH - tapped harmonic
SH - semi harmonic
PH - pitch harmonic
h - hammer on
p - pull off
b - bend
br - bendRelease
pb - preBend
pbr - preBendRelease
brb - bendReleaseBend
\n/ - tremolo bar dip
\n - tremolo bar dive
-/n - tremolo bar Release up
/n\ - tremolo bar inverted dip
/n - tremolo bar return
-\n - tremolo bar Release down
S - shift slide
s - legato slide
/ -  slide into from below or out of upwards
\ -  slide into from above or out of downwards
~ - vibrato
W - wide vibrato
tr - trill
TP - tremolo picking
T - tapping
S - slap
P - pop
< - fade in
^ - brush up
v - brush down


        
Comments

@Mellotronremix (July 07, 2008 at 6:41 AM)

I get the same rush playing this as when I drive with drill and bass music.


@laoise (March 28, 2009 at 4:09 PM)

Wow. This Is One Of My Favourites


@libertea (December 12, 2009 at 7:08 AM)

this is easily one of the best songs from ff


@Promathia (January 25, 2010 at 8:08 PM)

I don't get this part

-0-5---4-----5---8-7-5---- -----5---5-----5-------5-- -------------------------5

-------------0-----0-----0 ---0---0------------------


@musenji (October 28, 2014 at 1:24 AM)

More good stuff!

I feel like several people did the beginning the exact same way. Probably because it's Game Theory Optimal...I mean, optimal.