Gametabs
Home
Tabs
Random

The Decisive Battle

Average rating: No ratings

Composer:

Tabber:

Style:

Instrument:

Created: August 22, 2008 at 12:00 AM

            The Decisive Battle
Final Fantasy VI


G||--2------------L-----|--2----2--------L-9---------|
D||---------------------|--------------------9-10----|
A||---------------------|-------------------------11-|
E||---------------------|----------------------------|


     
----------------------------------|----------------------------------|
----------------------------------|----------------------------------|
--12----12----12----12----12--10--|--12----12----12----12----12--10--|
----------------------------------|----------------------------------|


     
---------------7-5--4-----|--2----4----5----9----|-------0------7-5--4-----|
-----------------------5--|----------------------|----------------------5--|
--8----10---7-------------|----------------------|--8--------7-------------|
--------------------------|----------------------|-------------------------|


     
--2----2----2----2----2--0--|--2----2----2----2----2--0--|
----------------------------|----------------------------|
----------------------------|----------------------------|
----------------------------|----------------------------|


     
--2----2----2----2----2--0--|----------------------------|
----------------------------|--3----3----2----0----2--2--|
----------------------------|----------------------------|
----------------------------|----------------------------|


     
--2----2----2----2----2--0--|----------------------------|
----------------------------|--3----3----2----0----2--2--|
----------------------------|----------------------------|
----------------------------|----------------------------|


      
------------0-------0--|--2---0----L-----0------|------------0---4---0--|
--3------4------0------|-------------2--------3-|--L------4-------------|
-----------------------|------------------------|-----------------------|
-----------------------|------------------------|-----------------------|


   
------2---7----5--4--2--|----------------9---7--|--5-------9--7----------|
--0---------------------|--3------4--2----------|------5----------7---4--|
------------------------|-----------------------|------------------------|
------------------------|-----------------------|------------------------|


  
---------5--10--9-10--9-7-5-|---------5--8----11------|
--3-------------------------|--4----------------------|
----------------------------|---------------------12--|
----------------------------|-------------------------|


     
-------12---11--10----------||-------9---8--7----------|---------------------|
----------------------------||*------------------------|--7------------L-----|
--10-----------------8----L-||*--7--------------5----L-|---------------------|
----------------------------||-------------------------|---------------------|


   
------------------9---------|----------------------------------|
--7----7--------L---9-10----|----------------------------------|
-------------------------11-|--12----12----12----12----12--10--|
----------------------------|----------------------------------|


      
----------------------------------|---------------7-5--4-----|
----------------------------------|-----------------------5--|
--12----12----12----12----12--10--|--8----10---7-------------|
----------------------------------|--------------------------|


      
--2----4----5----9----|-------0------7-5--4-----|--2----2----2----2----2--0--|
----------------------|----------------------5--|----------------------------|
----------------------|--8--------7-------------|----------------------------|
----------------------|-------------------------|----------------------------|


     
--2----2----2----2----2--0--|--2----2----2----2----2--0--|
----------------------------|----------------------------|
----------------------------|----------------------------|
----------------------------|----------------------------|


   
----------------------------|--2----2----2----2----2--0--|
--3----3----2----0----2--2--|----------------------------|
----------------------------|----------------------------|
----------------------------|----------------------------|


  
----------------------------|------------0-------0--|--2---0----L-----0------|
--3----3----2----0----2--2--|--3------4------0------|-------------2--------3-|
----------------------------|-----------------------|------------------------|
----------------------------|-----------------------|------------------------|


   
------------0---4---0--|------2---7----5--4--2--|----------------9---7--|
--L------4-------------|--0---------------------|--3------4--2----------|
-----------------------|------------------------|-----------------------|
-----------------------|------------------------|-----------------------|


      
--5-------9--7----------|---------5--10--9-10--9-7-5-|---------5--8----11------|
------5----------7---4--|--3-------------------------|--4----------------------|
------------------------|----------------------------|---------------------12--|
------------------------|----------------------------|-------------------------|


     
-------12---11--10-----------||------9---8--7----------||
----------------------------*||------------------------||
--10-----------------8----L-*||--7--------------5----L-||
-----------------------------||------------------------||

        
Comments

No comments yet