Gametabs
Home
Tabs
Random

Terra

Average rating: 5.000

1 ratings

Composer:

Tabber:

Style:

Instrument:

Created: January 23, 2009 at 12:00 AM

                                 Final Fantasy VI - Terra BASS TAB
                           Song by Nobuo Uematsu

                  Tabbed by auriplane ([email protected])

NOTE: I'm marking the rhythm separately from the song, because it repeats so
much, and it looks confusing if I space it out enough to mark it the whole way
through.

Parts A and B uses the following rhythm:

       Q     Q     Q     T T T  Q     T T T Q     E  E
    G |------------------------|------------------------|
    D |6-----6-----6-----6-6-6-|6-----6-6-6-6-----6--6--|
    A |------------------------|------------------------|
    E |------------------------|------------------------|

Part C uses the following rhythm:

       E  E  E  E  E  E  Q      E  E  E  E  E  E  Q      
    G |4--4--4--4--4--4--------|4--4--4--4--4--4--------|
    D |------------------------|------------------------|
    A |------------------------|------------------------|
    E |------------------------|------------------------|

Also, in Part C, for each six-note phrase, the first and last notes are the
loudest, and you sort of "scoop out" the middle by making those notes quieter.
You don't have to do this, but that's how it sounds in the game.

Anyway, here's the actual tab!!  Four-string bass, standard tuning.

    Part A (Repeat 2x)

G |------------------|------------------|------------------|------------------|
D |6-6-6-6666-6666-66|------------------|6-6-6-6666-6666-66|------------------|
A |------------------|6-6-6-6666-6666-66|------------------|6-6-6-6666-6666-66|
E |------------------|------------------|------------------|------------------|

G |4-4-4-4444-4444-44|------------------|------------------|------------------|
D |------------------|4-4-4-4444-4444-44|------------------|6-6-6-6666-6666-66|
A |------------------|------------------|7-7-7-7774-4444-44|------------------|
E |------------------|------------------|------------------|------------------|

    Part B

G |4-4-4-4444-4444-44|------------------|4-4-4-4444-4444-44|------------------|
D |------------------|4-4-4-4444-4444-44|------------------|4-4-4-4444-4444-44|
A |------------------|------------------|------------------|------------------|
E |------------------|------------------|------------------|------------------|

G |------------------|------------------|------------------|------------------|
D |6-6-6-6666-6666-66|------------------|------------------|6-6-6-6666-6666-66|
A |------------------|6-6-6-6666-6666-66|7-7-7-7774-4444-44|------------------|
E |------------------|------------------|------------------|------------------|

    Part C 

G |4-4-4-4-4-4-------|4-4-4-4-4-4-------|------------------|------------------|
D |------------------|------------------|------------------|------------------|
A |------------------|------------------|7-7-7-7-7-7-------|7-7-7-7-7-7-------|
E |------------------|------------------|------------------|------------------|
                                                                              
G |6-6-6-6-6-6-------|6-6-6-6-6-6-------|------------------|------------------|
D |------------------|------------------|4-4-4-4-4-4-------|4-4-4-4-4-4-------|
A |------------------|------------------|------------------|------------------|
E |------------------|------------------|------------------|------------------|
                                                                              
G |8-8-8-8-8-8-------|8-8-8-8-8-8-------|------------------|------------------|
D |------------------|------------------|6-6-6-6-6-6-------|6-6-6-6-6-6-------|
A |------------------|------------------|------------------|------------------|
E |------------------|------------------|------------------|------------------|
                                                                              
G |------------------|------------------|------------------|------------------|
D |------------------|------------------|4-4-4-4-4-4-------|4-4-4-4-4-4-------|
A |7-7-7-7-7-7-------|7-7-7-7-7-7-------|------------------|------------------|
E |------------------|------------------|------------------|------------------|
                                                                              
G |------------------|------------------|------------------|------------------|
D |4-4-4-4-4-4-------|4-4-4-4-4-4-------|6-----------------(6)----------------|
A |------------------|------------------|------------------|------------------|
E |------------------|------------------|------------------|------------------|

        
Comments

No comments yet